Pennywise - Same Old Story Chords & Tabs

 

Same Old Story Chords & Tabs

Pennywise Chords & Tabs

Version: 1 Type: Bass Tab 0 ratings
1 star 2 stars 3 stars 4 stars 5 stars
comments

Same Old Story Bass Tab

Song Title: Same Old Story
Artist: Pennywise
----------------------------------------------

best viewed using courier new font

PENNYWISE - "Same Old Story" - Bass Tab

Verse:
|------------------|-----------------|-----------------|
|*-----------------|-----------------|-----------------|
|*-0-0-3-3---------|-0-0-3-3---------|-0-0-3-3---------|
|----------1-1-3-3-|---------1-1-3-3-|---------1-1-3-3-|
   1 & 2 & 3 & 4 &   1 & 2 & 3 & 4 &   1 & 2 & 3 & 4 &

|------------------|
|-----------------*|
|-----------------*|(x3)
|-1-1-1-1-3-3-3-3--|
  1 & 2 & 3 & 4 &
[ Tab from: http://www.guitartabs.cc/tabs/p/pennywise/same_old_story_btab.html ]
Chorus:
|----------|---------|---------|----------|
|*---------|---------|---------|---------*|
|*-0-0-0-0-|-3-3-3-3-|-5-5-5-5-|-0-0-0-0-*|(x4)
|----------|---------|---------|----------|
   1 2 3 4   1 2 3 4   1 2 3 4   1 2 3 4
Verse
Chorus

Bridge:
|----------|---------|---------|----------|
|*---------|---------|---------|---------*|
|*-3-3-3-3-|-3-3-3-3-|-0-0-0-0-|-0-0-0-0-*|(x4)
|----------|---------|---------|----------|
   1 2 3 4   1 2 3 4   1 2 3 4   1 2 3 4

|---------|---------|---------|---------|---------|---------|
|---------|---------|---------|---------|---------|---------|
|-3-3-3-3-|-5-5-5-5-|-0-0-0-0-|-0-0-0-0-|-3-3-3-3-|-5-5-5-5-|
|---------|---------|---------|---------|---------|---------|
  1 2 3 4   1 2 3 4   1 2 3 4   1 2 3 4   1 2 3 4   1 2 3 4

|---------|
|---------|
|---------|
|-0-0-0-0-|
  1 2 3 4

Verse



Submitted by:  Jo Taylor (viking@powerup.com.au)
Comments