Pennywise - Running Out Of Time Chords & Tabs

 

Running Out Of Time Chords & Tabs

Pennywise Chords & Tabs

Version: 2 Type: Bass Tab 0 ratings
1 star 2 stars 3 stars 4 stars 5 stars
comments

Running Out Of Time Bass Tab

Song:RUNNING OUT OF TIME 
Band:PENNYWISE 
Album:FULL CIRCLE 
Tabbed by:PAUL KELLER 

INTRO: 
G:-------------------------------------- 
D:----------2>-------------------------- 
A:-2>-5>-------2>-5>-------------------- 
E:-------5>----------5>-3-3-3-3-2-2-2-2- 

RIFF 1: 
G:--------------------------------------------- 
D:----------2>-------------------5>-2>--------- 
A:-2>-5>-------2>-5>-------2>-5>-------2>-5>--- 
E:-------5>----------3>-0>-------------------5> 

REPEAT RIFF 1 ONCE. 
[ Tab from: http://www.guitartabs.cc/tabs/p/pennywise/running_out_of_time_btab_ver_2.html ]
RIFF 2: 
G:-------------------------------------------2-0------------- 
D:----------2>-------------------5>-2>-----------2-0-2-0----- 
A:-2>-5>-------2>-5>-------2>-5>-------2>-5>-------------2-0- 
E:-------5>----------3>-0>----------------------------------- 

RIFF 3: 
G:----------------------------------------- 
D:------4-2>-------2-0------4-2>-------2-0- 
A:-2>-5------5>--------2>-5------5>-------- 
E:--------------5>------------------5>----- 

RIFF 4: 
G:----------------------------------------------------- 
D:--------------------------------2>-4-5-5-5-5-4-4-4-4- 
A:-2>-5>----------------0-2>-5>------------------------ 
E:-------5>-0>-0-2-3>-3--------5>---------------------- 

RIFF 5 : 
G:----------------------- 
D:-----------------2>-4>- 
A:-2>-5-2>-0-2>-5>------- 
E:----------------------- 

REPEAT RIFF 1, 2, 3, 4 AND 5 ONCE. 

RIFF 6: 
G:------------------------- 
D:------------------------- 
A:-2>-5----5----5---------- 
E:------5>---3>---2>-3>-5>- 

REPEAT RIFF 6 AND RIFF 4 ONCE. 
Comments