Pennywise - Premeditated Murder Chords & Tabs

 

Premeditated Murder Chords & Tabs

Pennywise Chords & Tabs

Version: 1 Type: Tab 0 ratings
1 star 2 stars 3 stars 4 stars 5 stars
comments

Premeditated Murder Tab

   
pennywise
premeditated murder
the fuse('05)
----------------------------------------------------------------------------
tabber: Wobbler
standart tuning
----------------------------------------------------------------------------

intro \"premeditated murder..."\
e|----------------------------------------------------------------------|
B|----------------------------------------------------------------------|
G|-77777777-------5555-77777777-------5555-77777777-------5555-77777777-|
D|-77777777-3-5-7-5555-77777777-3-5-7-5555-77777777-3-5-7-5555-77777777-|
A|-55555555-3-5-7-3333-55555555-3-5-7-3333-55555555-3-5-7-3333-55555555-|
E|----------1-3-5---------------1-3-5---------------1-3-5---------------|

e|------------|
B|------------|
G|-------5555-|
D|-3-5-7-5555-|
A|-3-5-7-3333-|
E|-1-3-5------|

verse A \"you can have jesus..."\
e|--------------------------------------------------|
B|--------------------------------------------------|
G|-777-7-77-9/101010-10-101010----------------------|
D|-777-7-77-9/101010-10-101010-777-7-77-5\333-3-333-|
A|-555-5-55-7/-8-8-8--8--8-8-8-777-7-77-5\333-3-333-|
E|-----------------------------555-5-55-3\111-1-111-|

e|--------------------------------------------------------|
B|--------------------------------------------------------|
G|-777-7-77-9/101010-10-101010-----------121212-12-1212\\-|
D|-777-7-77-9/101010-10-101010-777-7-777-121212-12-1212\\-|
A|-555-5-55-7/-8-8-8--8--8-8-8-777-7-777-101010-10-1010\\-|
E|-----------------------------555-5-555------------------|

verse B \"criticizing standout..."\
e|-----------------------------------------------------------|
B|-----------------------------------------------------------|
G|-7-77777777-9/10-1010101010101010--------------------------|
D|-7-77777777-9/10-1010101010101010-10\7-77777777-5\33333333-|
A|-5-55555555-7/-8--8-8-8-8-8-8-8-8-10\7-77777777-5\33333333-|
E|-----------------------------------8\5-55555555-3\11111111-|
pm   ........      ................      ........   ........

e|-------------------------------------------------------------------------|
B|-------------------------------------------------------------------------|
G|-5/7-77777777-9/10-1010101010101010---------------9/121212-1212----------|
D|-5/7-77777777-9/10-1010101010101010-10\7-77777777-9/121212-1212-pickslide|
A|-3/5-55555555-7/-8--8-8-8-8-8-8-8-8-10\7-77777777-7/101010-1010----------|
E|-------------------------------------8\5-55555555------------------------|
pm     ........      ................      ........   

pre-chorus \"...slow...what it means you'll never know..."\
e|---------------------------------------------------|
B|---------------------------------------------------|
G|-777-77--5--101010-1010--------------5----------5--|
D|-777-77--5--101010-1010--10--777-77--5--555-55--5--|
A|-555-55--3---8-8-8--8-8--10--777-77--3--555-55--3--|
E|--------------------------8--555-55-----333-33-----|

chorus \"premeditated murder..."\
e|----------------------------------------------------------------------|
B|----------------------------------------------------------------------|
G|-77777777-------5555-77777777-------5555-77777777-------5555-77777777-|
D|-77777777-3-5-7-5555-77777777-3-5-7-5555-77777777-3-5-7-5555-77777777-|
A|-55555555-3-5-7-3333-55555555-3-5-7-3333-55555555-3-5-7-3333-55555555-|
E|----------1-3-5---------------1-3-5---------------1-3-5---------------|

e|------------|
B|------------|
G|-------5555-|
D|-3-5-7-5555-|
A|-3-5-7-3333-|
E|-1-3-5------|

verse A \"tyrannical leaders..."\
e|--------------------------------------------------|
B|--------------------------------------------------|
G|-777-7-77-9/101010-10-101010----------------------|
D|-777-7-77-9/101010-10-101010-777-7-77-5\333-3-333-|
A|-555-5-55-7/-8-8-8--8--8-8-8-777-7-77-5\333-3-333-|
E|-----------------------------555-5-55-3\111-1-111-|

e|--------------------------------------------------------|
B|--------------------------------------------------------|
G|-777-7-77-9/101010-10-101010-----------121212-12-1212\\-|
D|-777-7-77-9/101010-10-101010-777-7-777-121212-12-1212\\-|
A|-555-5-55-7/-8-8-8--8--8-8-8-777-7-777-101010-10-1010\\-|
E|-----------------------------555-5-555------------------|

verse B \"you fail to look inside..."\
e|-----------------------------------------------------------|
B|-----------------------------------------------------------|
G|-7-77777777-9/10-1010101010101010--------------------------|
D|-7-77777777-9/10-1010101010101010-10\7-77777777-5\33333333-|
A|-5-55555555-7/-8--8-8-8-8-8-8-8-8-10\7-77777777-5\33333333-|
E|-----------------------------------8\5-55555555-3\11111111-|
pm   ........      ................      ........   ........
[ Tab from: http://www.guitartabs.cc/tabs/p/pennywise/premeditated_murder_tab.html ]
e|-------------------------------------------------------------------------|
B|-------------------------------------------------------------------------|
G|-5/7-77777777-9/10-1010101010101010---------------9/121212-1212----------|
D|-5/7-77777777-9/10-1010101010101010-10\7-77777777-9/121212-1212-pickslide|
A|-3/5-55555555-7/-8--8-8-8-8-8-8-8-8-10\7-77777777-7/101010-1010----------|
E|-------------------------------------8\5-55555555------------------------|
pm     ........      ................      ........ 

pre-chorus \"...breath...it's the last one you're gonna get..."\
e|---------------------------------------------------|
B|---------------------------------------------------|
G|-777-77--5--101010-1010--------------5----------5--|
D|-777-77--5--101010-1010--10--777-77--5--555-55--5--|
A|-555-55--3---8-8-8--8-8--10--777-77--3--555-55--3--|
E|--------------------------8--555-55-----333-33-----|

chorus \"premeditated murder..."\
e|----------------------------------------------------------------------|
B|----------------------------------------------------------------------|
G|-77777777-------5555-77777777-------5555-77777777-------5555-77777777-|
D|-77777777-3-5-7-5555-77777777-3-5-7-5555-77777777-3-5-7-5555-77777777-|
A|-55555555-3-5-7-3333-55555555-3-5-7-3333-55555555-3-5-7-3333-55555555-|
E|----------1-3-5---------------1-3-5---------------1-3-5---------------|

e|------------|
B|------------|
G|-------5555-|
D|-3-5-7-5555-|
A|-3-5-7-3333-|
E|-1-3-5------|

bridge 
e|--------------------------------------------------------|
B|--------------------------------------------------------|
G|-7777-10101010---5-7-101010-12-7777-10101010---5-7------|
D|-7777-10101010-7-5-7-101010-12-7777-10101010-7-5-7-5555-|
A|-5555--8-8-8-8-7-3-5--8-8-8-10-5555--8-8-8-8-7-3-5-5555-|
E|---------------5-----------------------------5-----3333-|

e|-------------------------------------------------------|
B|-------------------------------------------------------|
G|-7777-10101010---5-7-101010-12-7777-10101010------5----|
D|-7777-10101010-7-5-7-101010-12-7777-10101010-5555-5-7--|
A|-5555--8-8-8-8-7-3-5--8-8-8-10-5555--8-8-8-8-5555-3-7--|
E|---------------5-----------------------------3333---5--|

interlude guitar one
e|-----------------------------------------------------------------|
B|-----------------------------------------------------------------|
G|-7~----10~-------------------7~----10~---------------------------|
D|-7~----10~------7~-----5~----7~----10~-----7~----------5~--------|
A|-5~-----8~------7~-----5~----5~-----8~-----7~----------5~--------|
E|----------------5~-----3~------------------5~----------3~--------|

interlude guitar two
e|-----------------------------------------------------------------|
B|-----------------------------------------------------------------|
G|-7~10\9-5~10\9-12~10\9-7~--5/7~1010-5~10\9-12~12121212-7-7-10-12-|
D|-x--x-x-x--x-x--x--x-x-x---x-x--x-x-x--x-x--x--x-x-x-x-x-x--x--x-|
A|-5~-8\7-3~-8\7-10~-8\7-5~--3/5~-8-8-3~-8\7-10~10101010-5-5--8-10-|
E|-----------------------------------------------------------------|

pre-chorus guitar one \"...slow...what it means you'll never know..."\
e|---------------------------------------------------|
B|---------------------------------------------------|
G|-777-77--5--101010-1010--------------5----------5--|
D|-777-77--5--101010-1010--10--777-77--5--555-55--5--|
A|-555-55--3---8-8-8--8-8--10--777-77--3--555-55--3--|
E|--------------------------8--555-55-----333-33-----|

pre-chorus guitar two
e|---------------------------------------------------|
B|---------------------------------------------------|
G|-777-77--------------------------------------------|
D|-xxx-xx--------------------------------------------|
A|-555-55--------------------------------------------|
E|---------------------------------------------------|

chorus \"premeditated murder..."\
e|----------------------------------------------------------------------|
B|----------------------------------------------------------------------|
G|-77777777-------5555-77777777-------5555-77777777-------5555-77777777-|
D|-77777777-3-5-7-5555-77777777-3-5-7-5555-77777777-3-5-7-5555-77777777-|
A|-55555555-3-5-7-3333-55555555-3-5-7-3333-55555555-3-5-7-3333-55555555-|
E|----------1-3-5---------------1-3-5---------------1-3-5---------------|

e|------------|
B|------------|
G|-------5555-|
D|-3-5-7-5555-|
A|-3-5-7-3333-|
E|-1-3-5------|

solo rythm \"premeditated murder..."\
e|----------------------------------------------------------------------|
B|----------------------------------------------------------------------|
G|-77777777-------5555-77777777-------5555-77777777-------5555-77777777-|
D|-77777777-3-5-7-5555-77777777-3-5-7-5555-77777777-3-5-7-5555-77777777-|
A|-55555555-3-5-7-3333-55555555-3-5-7-3333-55555555-3-5-7-3333-55555555-|
E|----------1-3-5---------------1-3-5---------------1-3-5---------------|

e|------------|
B|------------|
G|-------5555-|
D|-3-5-7-5555-|
A|-3-5-7-3333-|
E|-1-3-5------|

end on
e|---|
B|---|
G|-7-|
D|-7-|
A|-5-|
E|---|

thats it!!!
e-mail me at el_diablo7th@freenet.de
Comments