Pennywise - Perfect People Chords & Tabs

 

Perfect People Chords & Tabs

Pennywise Chords & Tabs

Version: 2 Type: Tab 0 ratings
1 star 2 stars 3 stars 4 stars 5 stars
comments

Perfect People Tab



Ok, this is just the intro part    
Strum x1



1---------------------------------------------------------------
2---------------------------------------------------------------
3----------------5-------7----------7--------------------------
4---------7------5-------7----------7--------5------2-------7
5---------7------3-------5----------5--------5------2-------7
6---------5-----------------------------------3-------0-------5
[ Tab from: http://www.guitartabs.cc/tabs/p/pennywise/perfect_people_tab_ver_2.html ]
this is the main part. Keep playing it over and over and over     
Strum x8

1-------------------------------------------------------
2-------------------------------------------------------
3-----------------------7------------------------------
4-------------7---------7---------5-------7-----------
5-------------7---------5---------5-------7-----------
6-------------5--------------------3-------5-----------


alright, I couldn’t find out how to play chorus, so do it yourself
email me at       Cakev200@aol.com






Comments