Pennywise - Peaceful Day Chords & Tabs

 

Peaceful Day Chords & Tabs

Pennywise Chords & Tabs

Version: 3 Type: Bass Tab 0 ratings
1 star 2 stars 3 stars 4 stars 5 stars
comments

Peaceful Day Bass Tab

Song Title: Peaceful Day
Artist: Pennywise
----------------------------------------------

PENNYWISE - "Peaceful Day" - Bass Tab

Corrected By Evo

Intro:
|--------------------|
|*-0---0-0--0---0-0-*|
|*------------------*|(x7)
|--------------------|
   1 & a 2  3 & a 4

Verse:
|--------------------|			|---------------|
|*-0-0-0-0-0-3p2-----|	(X3) then	|--------------*| (X1)
|*---------------3-1-|			|-1-1-1-1-0----*|
|--------------------|			|-----------1-3-|
   1 & 2 & 3 & 4   

repeat this 4 times for verse

Chorus:
|----------|---------|---------|----------|
|*-0-0-0-0-|-3-3-3-3-|---------|---------*|
|*---------|---------|-1-1-1-1-|-3-3-1-3-*|
|----------|---------|---------|----------|
   1 2 3 4   1 2 3 4   1 2 3 4   1 2 3 4

|----------|---------|---------|----------|
|*-0-0-0-0-|-3-3-3-3-|---------|---------*|
|*---------|---------|-1-1-1-1-|-0-0-----*|
|----------|---------|---------|-----1-3--|
   1 2 3 4   1 2 3 4   1 2 3 4   1 2 3 4
[ Tab from: http://www.guitartabs.cc/tabs/p/pennywise/peaceful_day_btab_ver_3.html ]
|---------|---------|---------|---------|---------|---------|
|-0-0-0-0-|-3-3-3-3-|-5-5-5-5-|---------|-0-0-0-0-|---------|
|---------|---------|---------|-3-3-3-3-|---------|-1-1-1-1-|
|---------|---------|---------|---------|---------|---------|
  1 2 3 4   1 2 3 4   1 2 3 4   1 2 3 4   1 2 3 4   1 2 3 4 
|---------|---------|
|---------|---------|
|-0-0-0-0-|-0-0-0-0-|
|---------|---------|
  1 2 3 4

Verse X3

Chorus X1

Intro X3




Then

|------------------|
|--/12--12--12--12-|
|------------------|
|------------------|

Bridge:

|-----------|-------------|-----------|-------------|
|-0-0-2-3/--|-------------|-0-0-2-3/--|-------------| (X2)
|-----------|-1-1-1-3-1-3-|-----------|-1-1-1-0-----|
|-----------|-------------|-----------|---------1-3-|

Verse X1

Chorus X1

Outro

|-----------|-----------|-----------|-------------|
|-0-0-0-0-0-|-3-3-3-3-3-|-0-0-0-0-0-|-5-5-5-3-3-3-|
|-----------|-----------|-----------|-------------|
|-----------|-----------|-----------|-------------|

|-----------|-----------|-----------|-----------|
|-0-0-0-0-0-|-3-3-3-3-3-|-----------|-----------|       
|-----------|-----------|-1-1-1-1-1-|-0---------|
|-----------|-----------|-----------|----1--2---|

(X2)

end on:

|-----------|
|-----------|
|--55\\\---|
|-----------|
Comments