Pennywise - One Voice Chords & Tabs

 

One Voice Chords & Tabs

Pennywise Chords & Tabs

Version: 2 Type: Bass Tab 0 ratings
1 star 2 stars 3 stars 4 stars 5 stars
comments

One Voice Bass Tab

   
SONG/ONE VOICE
BAND/PENNYWISE
troygrech@hotmail.com

RIFF 1
G:--------------
D:--------------
A:44------------
E:---55-22-5457-

RIFF 2
G:---------------------
D:--6------------------
A:44-4---7----4--------
E:-----55-5-22-2-54574-

RIFF 3
G:---------
D:---------
A:44444444-
E:---------

RIFF 4
G:-------------------------------------
D:-------------------------------------
A:444777------444777------444777-------
E:------555777------555222------555777-

RIFF 5
[ Tab from: http://www.guitartabs.cc/tabs/p/pennywise/one_voice_btab_ver_2.html ]
G:------------
D:------------
A:------------
E:22222-55555-

RIFF 6
G:----------------------------------
D:----------------------------------
A:----------------------------------
E:2222222222222222-5555555555555555-

RIFF 7
G:--------------------
D:--------------------
A:4-4--4-777777-------
E:-5-52-5------777777-

RIFF 8
G:---------------------------------
D:---------------------------------
A:4444----4444----4444----7777-----
E:----5555----5522----5555----7777-

RIFF 9
G:-----------------
A:-----------------
D:444444------7>---
E:------555555--7>-
Comments