Pennywise - Not Far Away Chords & Tabs

 

Not Far Away Chords & Tabs

Pennywise Chords & Tabs

Version: 1 Type: Tab 0 ratings
1 star 2 stars 3 stars 4 stars 5 stars
comments

Not Far Away Tab

   
From: Rambozo 
Subject: Not Far Away by Pennywise


Intro:                                  verse 1 & 2:
e-|-----------------------------------|--------------------------------------
B-|-----------------------------------|--------------------------------------
G-|-----------------------------------|-------10-10-10-10-9-9-9--------------
D-|-----------------------------------|-7-7-7-10-10-10-10-9-9-9-10-10-10-10--
A-|---8-7-----8-7------8-7-8-10-8-7---|-7-7-7--8--8--8--8-7-7-7-10-10-10-10--
E-|-5-----8-5-----8--5--------------8-|-5-5-5--------------------8--8--8--8--


e-|--------------------------------------------------------------------------
B-|--------------------------------------------------------------------------
G-|-------10-10-10-10-9-9-9----------------10-10-10-10-9-9-9-----------------
D-|-7-7-7-10-10-10-10-9-9-9-10-10-10-7-7-7-10-10-10-10-9-9-9-10-10-10-10-7-7-
A-|-7-7-7--8--8--8--8-7-7-7-10-10-10-7-7-7--8--8--8--8-7-7-7-10-10-10-10-7-7-
E-|-5-5-5--------------------8--8--8-5-5-5--------------------8--8--8--8-5-5-

                                        pre chorus:
e-|------------------------------------|-------------------------------------
B-|------------------------------------|-------------------------------------
G-|-----10-10-10-10-9-9-9--------------|-7-7-7-7-7-7-7-7-----------------7-7-
D-|-7-7-10-10-10-10-9-9-9-10-10-10-10--|-7-7-7-7-7-7-7-7-9-9-9-9-9-9-9-9-7-7-
A-|-7-7--8--8--8--8-7-7-7-10-10-10-10--|-5-5-5-5-5-5-5-5-9-9-9-9-9-9-9-9-5-5-
E-|-5-5--------------------8--8--8--8--|-----------------7-7-7-7-7-7-7-7-----

                                 chorus:
e-|-----------------------------|--------------------------------------------
B-|-----------------------------|--------------------------------------------
G-|-7-7-7-7-7-7-----------------|---------10-10-10-10-9-9-9-9----------------
D-|-7-7-7-7-7-7-9-9-9-9-9-9-9-9-|-7-7-7-7-10-10-10-10-9-9-9-9-10-10-10-10-7--
A-|-5-5-5-5-5-5-9-9-9-9-9-9-9-9-|-7-7-7-7--8--8--8--8-7-7-7-7-10-10-10-10-7--
E-|-------------7-7-7-7-7-7-7-7-|-5-5-5-5----------------------8--8--8--8-5--

[ Tab from: http://www.guitartabs.cc/tabs/p/pennywise/not_far_away_tab.html ]
e-|--------------------------------------------------------------------------
B-|--------------------------------------------------------------------------
G-|-------10-10-10-10-9-9-9-9---------------------10-10-10-10----------------
D-|-7-7-7-10-10-10-10-9-9-9-9-10-10-10-10-7-7-7-7-10-10-10-10-10-10-10-10-10-
A-|-7-7-7--8--8--8--8-7-7-7-7-10-10-10-10-7-7-7-7--8--8--8--8-10-10-10-10-10-
E-|-5-5-5----------------------8--8--8--8-5-5-5-5--------------8--8--8--8--8-


e-|------------------------------------------|
B-|------------------------------------------|
G-|----------9-9-9-9-9-9-9-9-9-9-9-9-9-9-9-9-|for the third verse play 
D-|-10-10-10-9-9-9-9-9-9-9-9-9-9-9-9-9-9-9-9-|one line of the normal 
A-|-10-10-10-7-7-7-7-7-7-7-7-7-7-7-7-7-7-7-7-|verse than one line of 
E-|--8--8--8---------------------------------|the chorus:

solo:
e-|-----------------------------------|
B-|-----------------------------------|
G-|-----------------------------------|
D-|-----------------------------------|
A-|---8-7---5-8-10-8---8-7-----8-10-8-|
E-|-5-----8----------5-----8-5--------|


third verse:
e-|--------------------------------------------------------------------------
B-|--------------------------------------------------------------------------
G-|---------10-10-10-10-12-12-12-12-12-12-12-12---------10-10-10-10-12-12-12-
D-|-7-7-7-7-10-10-10-10-12-12-12-12-12-12-12-12-7-7-7-7-10-10-10-10-12-12-12-
A-|-7-7-7-7--8--8--8--8-10-10-10-10-10-10-10-10-7-7-7-7--8--8--8--8-10-10-10-
E-|-5-5-5-5-------------------------------------5-5-5-5----------------------


e-|--------------------------------------------------------------------------
B-|--------------------------------------------------------------------------
G-|-12-12-12-12-12---------10-10-10-10-------------------------9-9-9-9-9-9-9-
D-|-12-12-12-12-12-7-7-7-7-10-10-10-10-10-10-10-10-10-10-10-10-9-9-9-9-9-9-9-
A-|-10-10-10-10-10-7-7-7-7--8--8--8--8-10-10-10-10-10-10-10-10-7-7-7-7-7-7-7-
E-|----------------5-5-5-5--------------8--8--8--8--8--8--8--8---------------

e-|-------------------|
B-|-------------------|
G-|-9-9-9-9-9-9-9-9-9-|
D-|-9-9-9-9-9-9-9-9-9-|
A-|-7-7-7-7-7-7-7-7-7-|
E-|-------------------|
transcribed by rambozo jjm@nucleus.com
Comments