Pennywise - Not Far Away Chords & Tabs

 

Not Far Away Chords & Tabs

Pennywise Chords & Tabs

Version: 2 Type: Bass Tab 0 ratings
1 star 2 stars 3 stars 4 stars 5 stars
comments

Not Far Away Bass Tab

Band: Pennywise
Song: Not far away
tabbed by: Dave Parisi
intro x2

G]---------------------------------------------------------------------------

D]---------------------------------------------------------------------------

A]----8-7-------8-7-------8-7-8-10-8-7-------------------------------
E]-5-------8-5-------8-5--------------------8----------------------------

verse 1 & 2

G]----------------------------------------------------------------------------------------------------------------

D]----------------------------------------------------------------------------------------------------------------

A]---------7-7-7-8-8-8-8-7-7-7----------------------8-8-8-8-7-7-7-------------------7-7-7-8-8-8-8-----------------

E]-5-5-5----------------------------8-8-8-8---5-5-5---------------------8-8-8--5-5-5--------------------8-8-8-8-5-5

pre chorus

G]-----------------------------------------------------------------------------

D]---------------------------------------------------------------------------

A]------8-8-8-8--7-7-7-------------5-5-5-5-5-5-5-5-----------------------5-5

E]-5-5---------------------8-8-8-8------------------------7-7-7-7-7-7-7-7-----

chorus

G]---------------------------------------------------------------------------
[ Tab from: http://www.guitartabs.cc/tabs/p/pennywise/not_far_away_btab_ver_2.html ]
D]---------------------------------------------------------------------------

A]------8-8-8-8--7-7-7-7-----------------------8-8-8-8--------------
E]-5-5-----------------------8-8-8-8-5-5-5-5-------------8-8-8-8---


G]--------------------------------------------------------------- for the
third verse play
D]--------------------------------------------------------------- one line
of the normal
A]---------7-7-7-7-7-7-7-7-7-7-7-7-7-7-7-7----------------------- verse
then one line of
E]-8-8-8----------------------------------------------------------the
chorus :

solo

G]--------------------------------------------------------------------------------------------------------------

D]--------------------------------------------------------------------------------------------------------------

A]----8-7----5-8-10-8----8-7-------8-10-8-------------8-8-8-8-10-10-10-10-10-10-10-10-----------8-8-8-8-8-10-10-

E]-5-------8---------------5-------8-5------------5-5-5-5-----------------------------------------------5-5-5-5-



D]----------------------------------------------------------------------------------------

G]----------------------------------------------------------------------------------------

A]-10-10-10-10-10-------------8-8-8-8------------------------7-7-7-7-7-7-7
E]------------------------5-5-5-5-------------8-8-8-8-8-8-8-8-------------------



Comments