Pennywise - My Own Country Chords & Tabs

 

My Own Country Chords & Tabs

Pennywise Chords & Tabs

Version: 2 Type: Tab 0 ratings
1 star 2 stars 3 stars 4 stars 5 stars
comments

My Own Country Tab

T1: Jake Maddy, jmaddy@gte.net, Pennywise, My Own Country, ??/??/99

S1: Title: My Own Country
Artist: Pennywise
Author: Jake Maddy

Key:
*=Harmonic/Scratch
/=Up Slide
\=Down Slide
x=Mute

Intro/Verse:
E|--------------------------------------------------|
B|--------------------------------------------------|
G|--------------------------------------------------|
D|--7/9-x-------------------7/9-x-------------------|
A|--7/9-x-------------------7/9-x-------------------|
E|--5/7-x-7*-7*-7*-7*-7*-7*-5/7-x-7*-7*-7*-7*-7*-7*-|

E|-------------------------------------------|
B|-------------------------------------------|
G|-------------------------------------------|
D|--7\5-x-------------------x-2-2-22-7-7-77--|
A|--7\5-x-------------------x-2-2-22-7-7-77--|
E|--5\3-x-3*-3*-3*-3*-3*-3*-x-0-0-00-5-5-55--|

Intro/Chorus:
E|--------------------------------------|
B|--------------------------------------|
G|--------7--------7--------7--------7--|
D|--9-999-7-9-99-9-7-5-55-5-7-7-77-7-7--|
A|--9-999-5-9-99-9-5-5-55-5-5-7-77-7-5--|
E|--7-777---7-77-7---3-33-3---5-55-5----|

E|--------------------------------------|
B|--------------------------------------|
G|--------7--------7--------7-9-9999-7--|
D|--9-999-7-9-99-9-7-5-55-5-7-9-9999-7--|
A|--9-999-5-9-99-9-5-5-55-5-5-7-7777-5--|
E|--7-777---7-77-7---3-33-3-------------|
[ Tab from: http://www.guitartabs.cc/tabs/p/pennywise/my_own_country_tab_ver_2.html ]
E|--------------------------------------|
B|--------------------------------------|
G|--------7--------7--------7--------7--|
D|--9-999-7-9-99-9-7-5-55-5-7-7-77-7-7--|
A|--9-999-5-9-99-9-5-5-55-5-5-7-77-7-5--|
E|--7-777---7-77-7---3-33-3---5-55-5----|


E|--------------------------------------|
B|--------------------------------------|
G|--------7--------7--------7--------7--|
D|--9-999-7-9-99-9-7-5-55-5-7-7-77-7-7--|
A|--9-999-5-9-99-9-5-5-55-5-5-7-77-7-5--|
E|--7-777---7-77-7---3-33-3---5-55-5----|

E|------------------------------|
B|------------------------------|
G|--------99-99-99-99-99-99-99--|
D|2-2-22--99-99-99-99-99-99-99--|
A|2-2-22--77-77-77-77-77-77-77--|
E|0-0-00------------------------|

Bridge:
E|--------------------------------------|
B|--------------------------------------|
G|-----------------------------------9--|
D|--x-9-7-5-5-7-5-2----x-9-7-5-5-7-5-9--|
A|--x-9-7-5-5-7-5-2----x-9-7-5-5-7-5-7--|
E|--x-7-5-3-3-5-3-0----x-7-5-3-3-5-3----|

E|-----------------------------------|    
B|-----------------------------------|    
G|-----------------------------------|    
D|--x-9-7-5-5-7-5-2----x-9-7-5-5-7-5-|    
A|--x-9-7-5-5-7-5-2----x-9-7-5-5-7-5-|    
E|--x-7-5-3-3-5-3-0----x-7-5-3-3-5-3-|    

E|------------------------------|
B|------------------------------|
G|9-9-99-9-9-10-10-11-11-12-12--|
D|9-9-99-x-x-x--x--x--x--x--x---|
A|7-7-77-7-7-8--8--9--9--10-10--|
E|------------------------------|

There thats about it. I think that i tabbed the rythym out pretty good,
but if you listen to the song you will figure it out easier.
Comments