Pennywise - My God Chords & Tabs

 

My God Chords & Tabs

Pennywise Chords & Tabs

Version: 6 Type: Tab 0 ratings
1 star 2 stars 3 stars 4 stars 5 stars
comments

My God Tab

   
----------------------------------------------------------------------
			     My God - Pennywise
----------------------------------------------------------------------
Tabbed by: Briggz
Email:

Tuning: standard (Eadgbe)

Order:

Intro
Verse
Chorus
Post chorus
verse 
chorus
bridge
post chorus (with solo) 
chorus
chorus


Intro

e|--------------------------------------------------------------------|
B|--------------------------------------------------------------------|
G|--------------------------------------------------------------------|
D|--3----xxxxxxx-----6666--5------------------------------------------|  x 4
A|--3----xxxxxxx-----6666--5------------------------------------------|
E|--1----xxxxxxx-----4444--3------------------------------------------|


e|--------------------------------------------------------------------|
B|--------------------------------------------------------------------|
G|-------665-------333-56----------665--------6--88--65---------------|
D|--33---665--55---333-56-----33---665---55---6--88--65---------------|
A|--33---443--55---111-34-----33---443---55---4--66--43---------------|
E|--11--------33--------------11---------33---------------------------|


e|--------------------------------------------------------------------|
B|--------------------------------------------------------------------|
G|-------665-------333-56---------------------------------------------|
D|--33---665--55---333-56------3----xxxxxxx----6666--5----------------|
A|--33---443--55---111-34------3----xxxxxxx----6666--5----------------|
E|--11--------33---------------1----xxxxxxx----4444--3----------------|

Verse 

e|--------------------------------------------------------------------|
B|--------------------------------------------------------------------|
G|-------665-------333-56----------665--------6--88--65---------------|
D|--33---665--55---333-56-----33---665---55---6--88--65---------------|
A|--33---443--55---111-34-----33---443---55---4--66--43---------------|
E|--11--------33--------------11---------33---------------------------|
  p.m...................................................                 x2 

e|--------------------------------------------------------------------|
B|--------------------------------------------------------------------|
G|-------665-------333-56---------------------------------------------|
D|--33---665--55---333-56------3----xxxxxxx----6666--5----------------|
A|--33---443--55---111-34------3----xxxxxxx----6666--5----------------|
E|--11--------33---------------1----xxxxxxx----4444--3----------------|
  p.m....................

Chorus 
[ Tab from: http://www.guitartabs.cc/tabs/p/pennywise/my_god_tab_ver_6.html ]
e|--------------------------------------------------------------------|
B|--------------------------------------------------------------------|
G|-------665-------333-56----------665--------6--88--65---------------|
D|--33---665--55---333-56-----33---665---55---6--88--65---------------|
A|--33---443--55---111-34-----33---443---55---4--66--43---------------|
E|--11--------33--------------11---------33---------------------------|
                                                                         x1

e|--------------------------------------------------------------------|
B|--------------------------------------------------------------------|
G|-------665-------333-56---------------------------------------------|
D|--33---665--55---333-56------3----xxxxxxx----6666--5----------------|
A|--33---443--55---111-34------3----xxxxxxx----6666--5----------------|
E|--11--------33---------------1----xxxxxxx----4444--3----------------|

Post Chorus

e|--------------------------------------------------------------------|
B|--------------------------------------------------------------------|
G|-------665-------333-56----------665--------6--88--65---------------|
D|--33---665--55---333-56-----33---665---55---6--88--65---------------|
A|--33---443--55---111-34-----33---443---55---4--66--43---------------|
E|--11--------33--------------11---------33---------------------------|
                                                                         x1

e|--------------------------------------------------------------------|
B|--------------------------------------------------------------------|
G|-------665-------333-56---------------------------------------------|
D|--33---665--55---333-56------3----xxxxxxx----6666--5----------------|
A|--33---443--55---111-34------3----xxxxxxx----6666--5----------------|
E|--11--------33---------------1----xxxxxxx----4444--3----------------|

Bridge

e|--------------------------------------------------------------------|
B|--------------------------------------------------------------------|
G|--666666--88---------------666666---88------------------------------|
D|--666666--88---33333333----666666---88--33333333--------------------|
A|--444444--66---33333333----444444---66--33333333--------------------|
E|---------------11111111-----------------11111111--------------------|

e|--------------------------------------------------------------------|
B|--------------------------------------------------------------------|
G|--6666--3333------------------6666-8888--5*-------------------------|
D|--6666--3333---3333---6666----6666-8888--5*- hold and let ring out--|
A|--4444--1111---3333---6666----4444-6666--3* ------------------------|
E|---------------1111---4444------------------------------------------|

Note: If anyone knows the solo, or if you have any corrections 
      please e-mail me at brycetaylor22@hotmail.com

| /  slide up
| \  slide down
| h  hammer-on
| p  pull-off
| ~  vibrato
| +  harmonic
| x  Mute note
=======================================================================
Comments