Pennywise - My God Chords & Tabs

 

My God Chords & Tabs

Pennywise Chords & Tabs

Version: 5 Type: Tab 0 ratings
1 star 2 stars 3 stars 4 stars 5 stars
comments

My God Tab

   
This is the right way, all the other tabs on here are wrong....WRONG!!!!

Here it goes....

Intro:
E--------------------------------------------------------
B--------------------------------------------------------
G-------------------------------------------------------- 
D-----5-5-5-5--4-4-4-4--2--X-X-X-X-X-X-X-----------------
A-----5-5-5-5--4-4-4-4--2--X-X-X-X-X-X-X-----------------
E-----3-3-3-3--2-2-2-2--0--X-X-X-X-X-X-X-----------------
[ Tab from: http://www.guitartabs.cc/tabs/p/pennywise/my_god_tab_ver_5.html ]
Main Riff:
E---------------------------|----------------------------
B---------------------------|----------------------------
G---------------------------|----------------------------
D--22--1010-9-5555--77-910--|--22--1010-9-5555-1212-109-- 
A--22--1010-9-5555--77-910--|--22--1010-9-5555-1212-109--
E--00--8-8--7-3333--55-78---|--00--8-8--7-3333-1010-8-7--

VERSE:
E--------------------------------------------------------
B--------------------------------------------------------
G--------------------------------------------------------
D-X-X-X-X-X-X-X-X-X-X-X-X-6-7-X-X-X-X-X-X-X-X-X-X-X-X-8-6
A-X-X-X-X-X-X-X-X-X-X-X-X-6-7-X-X-X-X-X-X-X-X-X-X-X-X-8-6
E-X-X-X-X-X-X-X-X-X-X-X-X-4-5-X-X-X-X-X-X-X-X-X-X-X-X-6-4

INTRO X5
MAIN  X2
VERSE X2
INTRO X1
VERSE X2
INTRO X1
MAIN  X2

I don't know the solo but when i figure it out it'll be on here!!
Comments