Pennywise - Land Of The Free Chords & Tabs

 

Land Of The Free Chords & Tabs

Pennywise Chords & Tabs

Version: 1 Type: Tab 0 ratings
1 star 2 stars 3 stars 4 stars 5 stars
comments

Land Of The Free Tab

   
Pennywise
Album: Land of the free

-------------------------------------------------------------------------------
			   Time Marches On
-------------------------------------------------------------------------------

Intro
e|----------------------------------------|
B|----------------------------------------|
G|10-10-6---10-10-6-8-10-10-6-------------|
D|10-10-6-6-10-10-6-8-10-10-6-6-8-10------|
A|-8--8-4-6--8--8-4-6--8--8-4-6-8-10------|
E|--------4-------------------4-6--8------|

Pre-Verso
e|--------------------------|
B|--------------------------|
G|-10-10-6---8-10-10-6-10---|
D|-10-10-6-6-8-10-10-6-10---|
A|--8--8-4-6-6--8--8-4--8---|
E|---------4----------------|

Verso
e|----------------------------------------|
B|----------------------------------------|
G|-10-10-6---8-10-10-6-8-10-6-6-----------|
D|-10-10-6-6-8-10-10-6-8-10-6-6-6-8-------|
A|--8--8-4-6-6--8--8-4-6--8-4-4-6-8-------|
E|---------4--------------------4-6-------|

  Pre-coro     Coros
e|-----------|----------------------------|
B|-----------|----------------------------|
G|-----------|-10-6---10-6-8-10-6---------|
D|-10-X-X----|-10-6-6-10-6-8-10-6-6-8-10--|
A|-10-X-X----|--8-4-6--8-4-6--8-4-6-8-10--|
E|--8-X-X----|------4-------------4-6--8--|

Solo (rythm guitar)
e|------------------------------------------------|
B|------------------------------------------------|
G|-10-10-6---8-10-10-6-8-10-10-6---8-10-10-6-10---|
D|-10-10-6-6-8-10-10-6-8-10-10-6-6-8-10-10-6-10---|
A|--8--8-4-6-6--8--8-4-6--8--8-4-6-6--8--8-4--8---|
E|---------4---------------------4----------------|

Otro
e|-------------------------------|
B|-------------------------------|
G|-10-6-8-10-6-8-10-6-8-6-8-10---|
D|-10-6-8-10-6-8-10-6-8-6-8-10---|
A|--8-4-6--8-4-6--8-4-6-4-6--8---|
E|-------------------------------|

Fin
-------------------------------------------------------------------------------
			  Land of the Free?
-------------------------------------------------------------------------------

By:Juan (soldier of the wise)

Intro
eb|--------------------------------------------------------------------------|
Bb|--------------------------------------------------------------------------|
Gb|-------------5------------5-------------5---------------------------------|
Db|-------------5------------5-------------5---------------------------------|
Ab|-------------3------------3-------------3----3--(3)--3--(3)---------------|
Eb|--00-00000-0---00-00000-0----00-00000-0------0--(0)--0--(0)---------------|
     p.m----- -   -- ----- -    -- ----- -

Preverse
eb|---------------------------------------------|
Bb|---------------------------------------------|
Gb|----------9-5--------------9-5-7-5/7---------|
Db|----------9-5-5-7\5--------9-5-7-5/7---------|
Ab|----------7-3-5-7\5--------7-3-5-3/5---------|
Eb|---0-0-0------3-5\3--0-0-0-------------------|
     p.m- -             - - -

Verso
eb|------------------------------------------------|
Bb|------------------------------------------------|
Gb|--------------9-5-------------------9-5-7-5/7---|
Db|--------------9-5-5-7\5-------------9-5-7-5/7---|
Ab|--------------7-3-5-7\5-------------7-3-5-3/5---|
Eb|---00-00000-0-----3-5\3--00-00000-0-------------|
      p.m.---- -            -- ----- -

Ritornello
eb|--------------------------|
Bb|--------------------------|
Gb|----5---7---5---4-4-------|
Db|--2-5-5-7-2-5-5-4-4-------|
Ab|--2-3-5-5-2-3-5-2-2-------|
Eb|--0---3---0---3-----------|

Ponte
eb|----------------|
Bb|----------------|
Gb|----7-5-4-------|
Db|--2-7-5-4-------|
Ab|--2-5-3-2-------|
Eb|--0-------------|
     p.m.---

Solo
eb|------------------------------------|
Bb|-------------------------------12---|
Gb|----9-9-9-9\4-----9-9-12-11-12------|
Db|------------------------------------|
Ab|------------------------------------|
Eb|------------------------------------|

Fine
-------------------------------------------------------------------------------
			          THE WORLD
-------------------------------------------------------------------------------

Intro & verso:
E|------------|---|
B|------------|---|
G|-------6-8--|---|
D|-3-6-8-6-8--|-3-|
A|-3-6-8-4-6--|-3-|
E|-1-4-6------|-1-|

Ritornello:
E|----------|-------|
B|----------|-------|
G|-10-8-----|-------| suona la 2 parte del ritornello
D|-10-8-6-8-|-3-8-6-| dopo aver fatto la prima parte 
A|-8--6-6-8-|-3-8-6-| 4 volte
E|------4-6-|-1-6-4-|
     
Fine

Intro:
E-|-------------------------------------------------------|
B-|-------------------------------------------------------|
G-|-11-11-x-11-11-12-12-x-12-12-14-12---------------------|
D-|-------x-------------x---------------------------------|
A-|-9--9--x-9--9--10-10-x-10-10-12-10---------------------|
E-|-------------------------------------------------------|

Verso:
E-|-------------------------------------------------------|
B-|-------------------------------------------------------|
G-|-------------------------------------------------------|
D-|---------------2-2-2-2-4-4-4-4-------------------------|
A-|-4-4-4-4-4-4-4-0-0-0-0-2-2-2-2-------------------------|
E-|-2-2-2-2-2-2-2-----------------------------------------|

Ritornello:
E-|-------------------------------------------------------|
B-|-------------------------------------------------------|
G-|-------------------------------------------------------|
D-|---------------2-2-2-2-4-4-4-4-------------------------|
A-|-4-4-4-4-4-4-4-0-0-0-0-2-2-2-2-------------------------|
E-|-2-2-2-2-2-2-2-----------------------------------------|

Ponte:
E-|-------------------------------------------------------|
B-|-------------------------------------------------------|
G-|-------------------------------------------------------|
D-|-6-6-6-6-6-6-6-6-9-9-9-9------9------------------------|
A-|-4-4-4-4-4-4-4-4-7-7-7-7--9-9-7-9----------------------|
E-|--------------------------7-7---7----------------------|

Fine
-------------------------------------------------------------------------------
                            FUCK AUTHORITY - Pennywise
-------------------------------------------------------------------------------

* = palm muted
( ) = non suonare la nota quando fai quella parte per la 2 volta

Intro 
e|-----------------------------------------------------------------|
B|-----------------------------------------------------------------|
G|---------------------------5-(5)---------------------------------|
D|-5-5--5-5-5--5-5-5--5-5-5--5-(5)--8-8--8-8-8--8-8-8--8-8-8-7-(7)-|
A|-5-5--5-5-5--5-5-5--5-5-5--3-(3)--8-8--8-8-8--8-8-8--8-8-8-7-(7)-|
E|-3-3--3-3-3--3-3-3--3-3-3---------6-6--6-6-6--6-6-6--6-6-6-5-(5)-|

e|-------------------------------------------------------|
B|-------------------------------------------------------|
G|---------------------------5-(5)----------------8--10--|
D|-3-3--3-3-3--3-3-3--3-3-3--5-(5)--5-5--5-5-5-5--8--10--|
A|-3-3--3-3-3--3-3-3--3-3-3--3-(3)--5-5--5-5-5-5--6--8---|
E|-1-1--1-1-1--1-1-1--1-1-1---------3-3--3-3-3-3---------|

Verso                                                        
e|----------------------------------------------------------------------------|
B|---------------------------------------------------------------------->-->--|
G|-*-*-*-*-*-*-*--5----*-*-*-*-*-*-------*-*-*-*-*-*--5----*-*-*-*-*-*--8--10-|
D|-5-5-5-5-5-5-5--5--8-8-8-8-8-8-8--7--3-3-3-3-3-3-3--5--5-5-5-5-5-5-5--8--10-|
A|-5-5-5-5-5-5-5--3--8-8-8-8-8-8-8--7--3-3-3-3-3-3-3--3--5-5-5-5-5-5-5--6--8--|
E|-3-3-3-3-3-3-3-----6-6-6-6-6-6-6--5--1-1-1-1-1-1-1-----3-3-3-3-3-3-3--------|

La seconda volta che lo suoni cambia il palm mute e lascia perdere le note segnate con >.
Al loro posto suona G pi spesso


Prechorus 
e|------------------------------------------------------------------------|
B|----------------------------------------*-*-*-*-*-*-*-------------------|
G|----*-*-*-*-*-*-*-----*-*-*-*-*-*-*--5--5-5-5-5-5-5-5-----*-*-*-*-*-*-*-|
D|-5--5-5-5-5-5-5-5--8--8-8-8-8-8-8-8--5--5-5-5-5-5-5-5--5--5-5-5-5-5-5-5-|
A|-5--5-5-5-5-5-5-5--8--8-8-8-8-8-8-8--3--3-3-3-3-3-3-3--5--5-5-5-5-5-5-5-|
E|-3--3-3-3-3-3-3-3--6--6-6-6-6-6-6-6--------------------3--3-3-3-3-3-3-3-|

Ritornello (1 parte)                               Ritornello (2 parte)
e|------------------------------------| |-------------------------------------|
B|------------------------------------| |-------------------------------------|
G|-------------------5-5-5-5----------| |-------------------5-5-5-5-5-5-5-5-5-|
D|-5-5-5-5--8-8-8-8--5-5-5-5--5-5-5-5-| |-5-5-5-5--8-8-8-8--5-5-5-5-5-5-5-5-5-|
A|-5-5-5-5--8-8-8-8--3-3-3-3--5-5-5-5-| |-5-5-5-5--8-8-8-8--3-3-3-3-3-3-3-3-3-|
E|-3-3-3-3--6-6-6-6-----------3-3-3-3-| |-3-3-3-3--6-6-6-6--------------------|

Postchorus
e|---------------------------------------------------------|
B|---------------------------------------------------------|
G|--------------7--8-8-8-8-----------7--10-10-10-10--------|
D|-3--8--5-5-5--7--8-8-8-8--5-5-5-5--7--10-10-10-10--5-5-5-|
A|-3--8--5-5-5--5--6-6-6-6--5-5-5-5--5--8--8--8--8---5-5-5-| 
E|-1--6--3-3-3--------------3-3-3-3------------------3-3-3-| 

e|-------------------------------------|
B|-------------------------------------|
G|-7--8-8-8-8--------****************--|
D|-7--8-8-8-8--3--8--5-5-5-5-5-5-5-5-5-|
A|-5--6-6-6-6--3--8--5-5-5-5-5-5-5-5-5-|
E|-------------1--6--3-3-3-3-3-3-3-3-3-|

Ponte
e|------------------------------------------------|
B|------------------------------------------------|
G|------------------------------------------------|
D|-3--8--5-5-5-5-5-5-5-5--12-12-12-12-12-12-12-12-|
A|-3--8--5-5-5-5-5-5-5-5--10-10-10-10-10-10-10-10-|
E|-1--6--3-3-3-3-3-3-3-3--------------------------|

e|----------------2volte----------------|
B|--------------------------------------|
G|-8-8-8-8-------5-5--------------------|
D|-8-8-8-8--8-8--5-5--5-x-x-x-5-5-5-5-5-|
A|-6-6-6-6--8-8--3-3--5-x-x-x-5-5-5-5-5-|
E|----------6-6-------3-x-x-x-3-3-3-3-3-|

e|-------------------------------------------------------------|
B|-------------------------------------------------------------|
G|-8-8-8-8--10-10-10-10---------5-----------8-8-8-8--10-10--8--10-|
D|-8-8-8-8--10-10-10-10--8-8-8--5--5-5-5-5--8-8-8-8--10-10--8--10-|
A|-6-6-6-6--8--8--8--8---8-8-8--3--5-5-5-5--6-6-6-6--8--8---6--8--|
E|-----------------------6-6-6-----3-3-3-3------------------------|

e|----------------------------|
B|----------------------------|
G|----------------------------|
D|-12-12-12-12-12-12-12-12-12-|
A|-10-10-10-10-10-10-10-10-10-|
E|----------------------------|

Fine

Struttura:

Intro: 2 volte
Verso: 2 volte
Prechorus: 2 volte, end with pickslide
Chorus (1 parte)
Chorus (2 parte)
Postchorus: end with pickslide
Verso: 2 volte
Prechorus: 2 volte, end with pickslide
Chorus (1 parte): 3 volte
Chorus (2 parte)
Ponte
Dopo la parte con il basso, la chitarra riparte con il Prechorus
Chorus (1 parte)
Chorus (2 parte)
Postchorus


-------------------------------------------------------------------------------
			SOMETHING WRONG WITH ME
-------------------------------------------------------------------------------

Intro - Ritornello:
e|--------------|-----------|
B|--------------|-----------|
G|---5---7------|------9----|
D|-3-5-5-7-7----|--3-5-9----|
A|-3-3-5-5-7----|--3-5-7----|
E|-1---3---5----|--1-3-------|

Verso: X4 Palm Muted la prima e la seconda volta
e|--------------------------------------|
B|--------------------------------------|
G|----------5-5-5-5---------------------|
D|--7-7-7-7-5-5-5-5-5-5-5-5-7-7-7-7-----|
A|--7-7-7-7-3-3-3-3-5-5-5-5-7-7-7-7-----|
E|--5-5-5-5---------3-3-3-3-5-5-5-5-----|
      p.m..   .....   .....   .....

Ponte:
e|-----------------------------------|
B|-----------------------------------|
G|---------5-5-5-5-7-7-7-7-----------|
D|-7-7-7-7-5-5-5-5-7-7-7-7-7-7-7-7---|
A|-7-7-7-7-3-3-3-3-5-5-5-5-7-7-7-7---|
E|-5-5-5-5-----------------5-5-5-5---|

Outro: X4 (asolo della chitarra ritmica)
e|-------------------------------------------------------|
B|-------------------------------------------------------|
G|---------5-5-5-5-7-7-9-9-------------------------------|
D|-7-7-7-7-5-5-5-5-7-7-9-9-7-7-7-7-----------------------|
A|-7-7-7-7-3-3-3-3-5-5-7-7-7-7-7-7-----------------------|
E|-5-5-5-5-----------------5-5-5-5-----------------------|
   p.m.... ............... .......  la 1 e 2 volta

Asolo:
e|---------------------------------------------------------------------------|
B|---------------------------------------------------------------------------|
G|------9-7--------7-9-7-----------------7-9-7----14-14-14-14-12-12-12-12----|
D|-7-10-----10-7-10------10-7--?????????-------10----------------------------|
A|---------------------------------------------------------------------------|
E|---------------------------------------------------------------------------|

e|----------------------------|
B|----------------------------|
G|--12-9----9-12-9------------|
D|-------12--------12-10-7----|
A|----------------------------|
E|----------------------------|

Parte dell'asolo non  completa, scusate.

Fine

-------------------------------------------------------------------------------
                                ENEMY 
-------------------------------------------------------------------------------
* = Palm Muted

Intro:
e|-------------------------------------|--------------------------------|
B|-------------------------------------|-****---------------------------|
G|-9999999-----------------------------|-9999-9-****---****-------------|
D|-9999999-5555555-9999999-9-7--12--11-|-9999-9-5555-5-9999-9-7--12--11-|
A|-7777777-5555555-9999999-9-7--10--9--|-7777-7-5555-5-9999-9-7--10--9--|
E|---------3333333-7777777-7-5---------|--------3333-3-7777-7-5---------|

Verso:
e|-------------------------------------|---------------------------------|
B|-------------------------------------|---------------------------------|
G|-9999999-----------------------------|-9999999---------7777777---------|
D|-9999999-5555555-9999999-9-7--12--11-|-9999999-5555555-7777777-9999999-|
A|-7777777-5555555-9999999-9-7--10--9--|-7777777-5555555-5555555-9999999-|
E|---------3333333-7777777-7-5---------|---------3333333---------7777777-|

Pre-Coro:
e|-----------------------------|
B|-----------------------------|
G|--*************----*********-|
D|--777777777777777--999999999-| End with Pickslide
A|--777777777777777--999999999-|
E|--555555555555555--777777777-|

Coro:                         ##
e|--------------2vuelta-------------|-------------2vuelta------------|
B|----------------------------------|-****---------------------------|
G|-9999-9---------------------------|-9999-9-****---****-------------|
D|-9999-9-5555-5-9999-9-9-7--12--11-|-9999-9-5555-5-9999-9-7--12--11-|
A|-7777-7-5555-5-9999-9-9-7--10--9--|-7777-7-5555-5-9999-9-7--10--9--|
E|--------3333-3-7777-7-7-5---------|--------3333-3-7777-7-5---------|

Puente:
e|----------------------------------------------|
B|----------------------------------------------|
G|-**********---*********-********--------------|
D|-77777777777--999999999999999999-9--7--12--11-|
A|-77777777777--999999999999999999-9--7--10--9--|
E|-55555555555--777777777777777777-7--5---------|

Otro:
e|-----------------------------------------|
B|-----------------------------------------|
G|-9-9-9-9---------------------------------|
D|-9-9-9-9--5-5-5-5--9-9-9-9-9--7--12--11~-|
A|-7-7-7-7--5-5-5-5--9-9-9-9-9--7--10--9-~-|
E|----------3-3-3-3--7-7-7-7-7--5----------|

2 parte de guitarra (1.55 min) 
e|--------------------------------------------------------|
B|--------------------------------------------------------|
G|--------------------------------------------------------|
D|---------------7---------9--9-7--9-7--------------------|
A|-----7--9--10-----10--9---------------10-9------7-------|
E|--------------------------------------------10-----10-7-|

-------------------------------------------------------------------------------
                                 My God 
-------------------------------------------------------------------------------


Intro 1: (4x)
----------------------------------------
----------------------------------------
----------------------------------------
--33--natural-harmonic-------6666--555--
--33-------------------------6666--555--
--11--2-2-3-3-4-4-5-6-6.75---4444--333--


Intro 2:  (1 e 3 volta   |        (2 volta)         |
---------------------------|---------------------------|---------------------------
---------------------------|---------------------------|---------------------------
-------6--5----------------|-------6--5-------8--6--5--|--4th time play 1st intro--
--333--6--5--666--8--6--5--|--333--6--5--666--8--6--5--|---------------------------
--333--4--3--666--8--6--5--|--333--4--3--666--6--4--3--|---------------------------
--111--------444--6--4--3--|--111--------444-----------|---------------------------

Verso (2x)                                1 e 3 volta|   
-------------------------------------------------------|-------------------------------
--palm--muted...........-------------------------------|-------------------------------
---------66--5-----------------------------------------|--alla 4 volta suona intro 1--
---------66--5--6666--88--6--5-------------------------|-------------------------------
--33333--44--3--6666--88--6--5--last 2 chords regular--|-------------------------------
--11111---------4444--66--4--3-------------------------|-------------------------------

Il ritornello  uguale all'Intro 2; suonalo per due volte, poi passa al verso
(ancora 2 volte) ed infine
suona una volta ancora il ritornello

Ponte  (prime 2 volte)  | (ultime 2 volte)             
------------------------|------------------------------------------------------
------------------------|------------------------------------------------------
--666666--88------------|--6666--8888------------------------------------------
--666666--88--33333333--|--6666--8888--3333--6666--la 4 volte suona 1-3-3 per un po'
--444444--66--33333333--|--4444--6666--3333--6666------------------------------
--------------11111111--|--------------1111--4444------------------------------

Suona il ritornello ancora 2 volte

Fine



-------------------------------------------------------------------------------
			      TWIST OF FATE
-------------------------------------------------------------------------------

Intro:
e|---------------------------------------------------------------------------|
B|---------------------------------------------------------------------------|
G|---------------------------------------------------------------------------|
D|-9-11-12-14-12--9-11-12-14-16--9-11-12-14-12--9-11-9-----------------------|
A|-9-11-12-14-12--9-11-12-14-16--9-11-12-14-12--9-11-9-----------------------|
E|-7--9-10-12-10--7--9-10-12-14--7--9-10-12-10--7--9-7-----------------------|

Verso:
e|--------------------------------------------------------|
B|--------------------------------------------------------|
G|--------------------------------------------------------|
D|--9-9-11-11-12-12-14-12--9-9-11-11-12-12-14-12----------|
A|--9-9-11-11-12-12-14-12--9-9-11-11-12-12-14-12----------|
E|--7-7--9--9-10-10-12-10--7-7--9--9-10-10-12-10----------|
    p.m.........           ............

e|--------------------------------------------------------|
B|--------------------------------------------------------|
G|--------------------------------------------------------|
D|--9-9-11-11-12-12-14-12--9-9-11-11-9-9-9-9--------------|
A|--9-9-11-11-12-12-14-12--9-9-11-11-9-9-9-9--------------|
E|--7-7--9--9-10-10-12-10--7-7--9--9-7-7-7-7--------------|
    ............
Palm Muted solo la segunda vez

Puente:                Coros:
e|-------------------|----------------------------------------|
B|-------------------|----------------------------------------|
G|-------------------|----------------------------------------|
D|--5-5-5-5-4-4-4-4--|-9-9-12-12-14-14-14-14-5-5-5-5-4-4-4-4--|
A|--5-5-5-5-4-4-4-4--|-9-9-12-12-14-14-14-14-5-5-5-5-4-4-4-4--|
E|--3-3-3-3-2-2-2-2--|-7-7-10-10-12-12-12-12-3-3-3-3-2-2-2-2--|

Otro:
e|------------------------------------------|
B|------------------------------------------|
G|------------------------------------------|
D|-9-9/12-12\5-5/14-7--9-9/12-12\5-5/14-7---|
A|-9-9/12-12\5-5/14-7--9-9/12-12\5-5/14-7---|
E|-7-7/10-10\3-3/12-5--7-7/10-10\3-3/12-5---|

e|------------------------------------------------------------------------------|
B|------------------------------------------------------------------------------|
G|------------------------------------------------------------------------------|
D|-9-9-9-9-12-12-12-12-5-5-5-5-14-14-7-7-9-9-9-9-12-12-12-12-5-5-5-5-14-16-17-16|
A|-9-9-9-9-12-12-12-12-5-5-5-5-14-14-7-7-9-9-9-9-12-12-12-12-5-5-5-5-14-16-17-16|
E|-7-7-7-7-10-10-10-10-3-3-3-3-12-12-5-5-7-7-7-7-10-10-10-10-3-3-3-3-12-14-15-14|
     p.m..    ........   .....    ..   .   .....    ........

e|---------------------------------------------------------------|
B|---------------------------------------------------------------|
G|--------------------------------------------(x4)(x4)(x4)(x4)---|
D|-9-9-9-9-12-12-12-12-5-5-5-5-14-16-17-16------9--12---5---4----|
A|-9-9-9-9-12-12-12-12-5-5-5-5-14-16-17-16------9--12---5---4----|
E|-7-7-7-7-10-10-10-10-3-3-3-3-12-14-15-14------7--10---3---2----|
[ Tab from: http://www.guitartabs.cc/tabs/p/pennywise/land_of_the_free_tab.html ]
Fin
-------------------------------------------------------------------------------
			         WHO'S ON YOUR SIDE
-------------------------------------------------------------------------------

X = muted string
* = Palm Mute
(x_)= Times Chord 

Intro 1: (primera guitarra)
e|----------------------------------------------------------------|
B|----------------------------------------------------------------|
G|-9------16------14------13------7------9-------------16---------|
D|-x-(x8)--x-(x3)--x-(x5)--x-(x8)-x-(x3)-x-(x5)-9-------x-(x3)----|
A|-7------14------12------11------5------7------x-(x8)-14---------|
E|----------------------------------------------7-----------------|

e|----------------------------------------------------------------|
B|----------------------------------------------------------------|
G|-14------13------7------9--------------9------------------------|
D|--x-(x5)--x-(x8)-x-(x3)-x-(x5)-9-------x-(x8)-------------------|
A|-12------11------5------7------x-(x8)--7------------------------|
E|-------------------------------7--------------------------------|

Intro 1: (segunda guitarra) (x4)
e|----------------------------------------------------------------|
B|----------------------------------------------------------------|
G|----------------------------------------------------------------|
D|-2------5------4------------------------------------------------|
A|-2-(x8)-5-(x5)-4-(x5)-------------------------------------------|
E|-0------3------2------------------------------------------------|

Intro 2: (primera guitarra) (x2) 
e|----------------------------------------------------------------|
B|----------------------------------------------------------------|
G|-9--9--9----------------7--7--7---------------------------------|
D|-9--9--9---5--5--5--5---7--7--7---9--9--7--9--------------------|
A|-7--7--7---5--5--5--5---5--5--5---9--9--7--9--------------------|
E|-----------3--3--3--3-------------7--7--5--7--------------------|

e|----------------------------------------------------------------|
B|----------------------------------------------------------------|
G|-9--9--7--9--7--9--7------------9------11-----------------------|
D|-x--x--x--x--x--x--x---(x2)-----x-(x8)--x-(x8)------------------|
A|-7--7--5--7--5--7--5------------7-------9-----------------------|
E|----------------------------------------------------------------|

Intro 2: (segunda guitarra) (x3)
e|----------------------------------------------------------------|
B|----------------------------------------------------------------|
G|-9--9--9----------------7--7--7---------------------------------|
D|-9--9--9---5--5--5--5---7--7--7---9--9--7--9--------------------|
A|-7--7--7---5--5--5--5---5--5--5---9--9--7--9--------------------|
E|-----------3--3--3--3-------------7--7--5--7--------------------|

e|----------------------------------------------------------------|
B|----------------------------------------------------------------|
G|----------------------------------------------------------------|
D|-7------9-------------------------------------------------------|
A|-7-(x8)-9-(x8)--------------------------------------------------|
E|-5------7-------------------------------------------------------|

Verso: (primera guitarra) (x2)
e|----------------------------------------------------------------|
B|----------------------------------------------------------------|
G|-9----7----11----8----------------------------------------------|
D|----------------------------------------------------------------|
A|----------------------------------------------------------------|
E|----------------------------------------------------------------|

e|----------------------------------------------------------------|
B|----------------------------------------------------------------|
G|-9-------12-------7---------------------------------------------|
D|-9-(x8)--12-(x8)--7-(x8)--9-------------------------------------|
A|-7-------10-------5-------9-(x8)--------------------------------|
E|--------------------------7-------------------------------------|

Verso: (segunda guitarra) (x4)
e|----------------------------------------------------------------|
B|----------------------------------------------------------------|
G|-9---------------7----------------------------------------------|
D|-9-(x8)--5-(x8)--7-(x8)----9------------------------------------|
A|-7-------5-------5---------9-(x8)-------------------------------|
E|---------3-----------------7------------------------------------|

Coro: (primera guitarra) (x6)
e|----------------------------------------------------------------|
B|----------------------------------------------------------------|
G|-9--9--7--9--7--9--7--------------------------------------------|
D|-x--x--x--x--x--x--x--------------------------------------------|
A|-7--7--5--7--5--7--5--------------------------------------------|
E|----------------------------------------------------------------|

e|----------------------------------------------------------------|
B|----------------------------------------------------------------|
G|-8-------9--11--------------------------------------------------|
D|-x-(x8)--x---x-(x8)---------------------------------------------|
A|-6-------7---9--------------------------------------------------|
E|----------------------------------------------------------------|

Coro: (segunda guitarra) (x3)
e|----------------------------------------------------------------|
B|----------------------------------------------------------------|
G|-9--9--9----------------7--7--7---------------------------------|
D|-9--9--9---5--5--5--5---7--7--7---9--9--7--9--------------------|
A|-7--7--7---5--5--5--5---5--5--5---9--9--7--9--------------------|
E|-----------3--3--3--3-------------7--7--5--7--------------------|

Intro 3: (primera guitarra) (x2)
e|----------------------------------------------------------------|
B|----------------------------------------------------------------|
G|-9--9--7--9--7--9--7----9--9--7--9-12--9--7---------------------|
D|-x--x--x--x--x--x--x----x--x--x--x--x--x--x---------------------|
A|-7--7--5--7--5--7--5----7--7--5--7-10--7--5---------------------|
E|----------------------------------------------------------------|

e|----------------------------------------------------------------|
B|----------------------------------------------------------------|
G|-9-------11-----------------------------------------------------|
D|-x-(x8)---x-(x8)------------------------------------------------|
A|-7--------9-----------------------------------------------------|
E|----------------------------------------------------------------|

Intro 3: (segunda guitarra) (x2)
e|----------------------------------------------------------------|
B|----------------------------------------------------------------|
G|-9--9--9----------------7--7--7---------------------------------|
D|-9--9--9---5--5--5--5---7--7--7---9--9--7--9--------------------|
A|-7--7--7---5--5--5--5---5--5--5---9--9--7--9--------------------|
E|-----------3--3--3--3-------------7--7--5--7--------------------|

e|----------------------------------------------------------------|
B|----------------------------------------------------------------|
G|----------------------------------------------------------------|
D|-7------9-------------------------------------------------------|
A|-7-(x8)-9-(x8)--------------------------------------------------|
E|-5------7-------------------------------------------------------|
Repetir verso y coro

Puente: (x3)
e|----------------------------------------------------------------|
B|----------------------------------------------------------------|
G|-9-----------7-----------9--------------------------------------|
D|-9---5---7---7---7---9---9-(x8)---------------------------------|
A|-7---5---7---5---7---9---7--------------------------------------|
E|-----3---5-------5---7------------------------------------------|

Coro
Fin


-------------------------------------------------------------------------------
			          IT'S UP TO YOU
-------------------------------------------------------------------------------

Intro & verso:
E|------------|---|
B|------------|---|
G|-------6-8--|---|
D|-3-6-8-6-8--|-3-|
A|-3-6-8-4-6--|-3-|
E|-1-4-6------|-1-|

Ritornello:
E|----------|-------|
B|----------|-------|
G|-10-8-----|-------| suona la 2 parte del ritornello
D|-10-8-6-8-|-3-8-6-| dopo aver fatto la prima parte 
A|-8--6-6-8-|-3-8-6-| 4 volte
E|------4-6-|-1-6-4-|
     
Fine

By: Josh MacArthur

Intro & verso:                  1st     2nd         3rd        4th
e|---------------------------|------|------------|----------|----------------|
B|---------------------------|------|------------|----------|----------------|
G|---------------------------|------|------------|----------|----------------|
D|--------10101010-----------|------|-1212-10-12-|------7-7-|-1212-10-12-----|
A|--7777--8-8-8-8---10101010-|-5555-|-1010-8--10-|-555--5-5-|-1010-8--10-----|
E|--5555------------8-8-8-8--|-3333-|------------|-333------|----------------|
                                p.m.
Ritornello:
e|-----------------------------|---------------------|-----------------------|
B|-----------------------------|---------------------|-----------------------|
G|-----------------------------|---------------------|-----------------------|
D|--------------------10101010-|-5555----------------|-5555------------------|
A|-77-7-777--555-555--8-8-8-8--|-3333-5555-7777-3333-|-3333-5555-33-33-33-5--|
E|-55-5-555--333-333-----------|------3333-5555-1111-|------3333-11-11-11-3--|
                                                                |--------|
                                                                   p.m.
Interludio:
e|---------------------------|
B|---------------------------|
G|---------------------------|
D|------101010--------121212-|
A|-777--8-8-8--101010-101010-|
E|-555---------8-8-8---------|
a questo punto devi tornare velocemente al verso; 
poi suona il ritornello e l'asolo seguente:

L'asolo:
e|---------------------------------------------------------------------------|
B|---------------------------------------------------------------------------|
G|---------------------------------------------------------------------------|
D|---------------------------------------------------------------------------|
A|-----7-8-7-8-10-8-7-8-7--------7-8-7-8-5------7-8-7-8-10-8-7-8-7-------7-8-|
E|-5-8--------------------8--5-8------------5-8--------------------10--8-----|

               
e|------------|---------------------------------------------------------------|
B|------------|---------------------------------------------------------------|
G|------------|---------------------------------------------------------------|
D|----10-9----|-------10101010--------------------10101010--------------------|
A|-10------10-|-7777--8-8-8-8---7777--5555--7777--8-8-8-8---10101010--5555----|
E|------------|-5555------------5555--3333--5555------------8-8-8-8---3333----|

Suona ancora una volta il ritornello e poi l'outro

Outro:
e|-----------------------|
B|-----------------------|
G|-----------------------|
D|-55555-----------------|
A|-33333--55555--33333---|
E|--------33333--11111---|

Fine


 2001 PunkHardcore.com 
-------------------------------------------------------------------------------
			       SET ME FREE 
-------------------------------------------------------------------------------


Intro:
e|---------------------------------------------------------------|
B|---------------------------------------------------------------|
G|-7-7-7-5----------7-7-7-5----------7-7-7-5----------7-10-5-----|
D|-7-7-7-5-5-5-5-5--7-7-7-5-5-5-5-5--7-7-7-5-5-5-5-5--7-10-5-5---|
A|-5-5-5-3-5-5-5-5--5-5-5-3-5-5-5-5--5-5-5-3-5-5-5-5--5--8-3-5---|
E|---------3-3-3-3----------3-3-3-3----------3-3-3-3---------3---|
               ...              ...

Verso:
e|-------------------------------------------------------------------|
B|-------------------------------------------------------------------|
G|--7-7-7-7---------5-5-5-5---------7-7-7-7---------5-5-5-5----------|
D|--7-7-7-7-3-3-3-3-5-5-5-5-5-5-5-5-7-7-7-7-3-3-3-3-5-5-5-5-5-5-5-5--|
A|--5-5-5-5-3-3-3-3-3-3-3-3-5-5-5-5-5-5-5-5-3-3-3-3-3-3-3-3-5-5-5-5--|
E|----------1-1-1-1---------3-3-3-3---------1-1-1-1---------3-3-3-3--|
    ....... ....... ....... ....... ....... ....... .......

e|-------------------------------------------------------------------|
B|-------------------------------------------------------------------|
G|--7-7-7-7---------5-5-5-5---------7-7-7-7--------------------------|
D|--7-7-7-7-3-3-3-3-5-5-5-5-5-5-5-5-7-7-7-7-3-3-3-3-5-5-5-5-5-5-5-5--|
A|--5-5-5-5-3-3-3-3-3-3-3-3-5-5-5-5-5-5-5-5-3-3-3-3-5-5-5-5-5-5-5-5--|
E|----------1-1-1-1---------3-3-3-3---------1-1-1-1-3-3-3-3-3-3-3-3--|
                                                    ...............

Coros:
e|-------------------------------------------------------------------|
B|-------------------------------------------------------------------|
G|-7\5-7\5-7-7-7------------------7\5-7\5-7-7-7---------5-5-5-5------|
D|-7\5-7\5-7-7-7-3-3-3-3-5-5-5-5--7\5-7\5-7-7-7-3-3-3-3-5-5-5-5------|
A|-5\3-5\3-5-5-5-3-3-3-3-5-5-5-5--5\3-5\3-5-5-5-3-3-3-3-3-3-3-3------|
E|---------------1-1-1-1-3-3-3-3----------------1-1-1-1--------------|
             ...     ...     ...            ...     ...     ...

e|-------------------------------------------------------------------|
B|-------------------------------------------------------------------|
G|-7\5-7\5-7-7-7------------------7\5-7\5-7-10-5---------------------|
D|-7\5-7\5-7-7-7-3-3-3-3-5-5-5-5--7\5-7\5-7-10-5---------------------|
A|-5\3-5\3-5-5-5-3-3-3-3-5-5-5-5--5\3-5\3-5--8-3---------------------|
E|---------------1-1-1-1-3-3-3-3-------------------------------------|
             ...     ...     ...

Puente:
e|-------------------------------|
B|-------------------------------|
G|-------------------------------|
D|--3-3-3-3-3-3-3-3-5-5-5-5-5----|
A|--3-3-3-3-3-3-3-3-5-5-5-5-5----|
E|--1-1-1-1-1-1-1-1-3-3-3-3-3----|
      .....   .....   .....

....= Palm Muted
-------------------------------------------------------------------------------
			      Divine Intervention
-------------------------------------------------------------------------------

Intro:
    B  A  E  G
e|--------------|                e|-------------|
B|--------------|                B|-(let ring)--|
G|--4-----------|  4 volte poi:  G|--4----4-----|    (pickslide)
D|--4--7--2--5--|                D|--4----4-----|
A|--2--7--2--5--|                A|--2----2-----|
E|-----5--0--3--|                E|-------------|

you don't need divine intervention
for all the things that you never can face
you don't need good intentions
cause in the end it is all just a waste

B              D
we all need an endless vacation
G                         E
from all the problems the world can provide
B            D                                       (palm mute)
we just need reconciliation
G                 E
to repair what is wrong in our lives

B                A            
i can't face the day
E          G      B               A
don't want to try i want to waste away
E        G    B    A  E        G       B
till i'm lost save me from all the chaos
A    E       B
i'll radiate till i'm gone

B       D
so wait wait
G                   E
so many things that i'll never break away
B    D
wait wait
G         
save your answers
E
there's nothing when you're gone from here


B A E G  (4 volte)


B         D
it's only another day wasted
G                      E
that's replayed in the back of your mind
B
A snapshot
D
that you suffocated
G                     E
among the shadows and little white lies              (palm mute)
B              D
you don't need a crude benediction
G                 E
a pale savior you can sacrifice
B             D
you just need a new definition
G                    E
when you're feeling alone in the night


Suona il ritornello, per l'asolo guarda l'intro



B              D
you don't need divine intervention
G                           E
for all the things that you never can face
B              D                                     (palm mute)
you don't need good intentions
G                   E   
cause in the end it is all just a waste

B              D
we all need an endless vacation
G                         E
from all the problems the world can provide
B            D
we just need reconciliation
G                 E
to repair what is wrong in our lives


B       D
so wait wait
G                   E
so many things that i'll never break away
B    D
wait wait                                            (2 volte)
G         
save your answers
E
there's nothing when you're gone from here


Outro:

B A E G  4 volte finendo con  B


Fin

-------------------------------------------------------------------------------
			           W.T.O.
-------------------------------------------------------------------------------


Intro: (palm muted)
e|---------------------------------------------------------------------------|
B|---------------------------------------------------------------------------|
G|-------8----------------8-10-10-10-10--------------6-6---------------------|
D|-6-6-8-8-3-3-3-3--6-6-8-8-10-10-10-10--6-6-8-8-3-3-6-6--6-6-8-8-3-3-3-3----|
A|-6-6-8-6-3-3-3-3--6-6-8-6--8--8--8--8--6-6-8-8-3-3-4-4--6-6-8-8-3-3-3-3----|
E|-4-4-6---1-1-1-1--4-4-6----------------4-4-6-6-1-1------4-4-6-6-1-1-1-1----|

Verso:                                                  X2
e|------------------------------------------------------|--------------------|
B|------------------------------------------------------|--------------------|
G|-------8----------------8-10-10-8-10--------------6-6-|--------------------|
D|-6-6-8-8-3-3-3-3--6-6-8-8-10-10-8-10--6-6-8-8-3-3-6-6-|-6-6-8-8-3-3-3-3----|
A|-6-6-8-6-3-3-3-3--6-6-8-6--8--8-6--8--6-6-8-8-3-3-4-4-|-6-6-8-8-3-3-3-3----|
E|-4-4-6---1-1-1-1--4-4-6---------------4-4-6-6-1-1-----|-4-4-6-6-1-1-1-1----|
                                            ...     ...

Puente:
e|---------------------------------------------------|
B|---------------------------------------------------|
G|-6-6-6-6-------------------------------------------|
D|-6-6-6-6-8-8-8-8-3-6-8-6-3-6-8-10-8-8-6-6-3-3-3-3--|
A|-4-4-4-4-8-8-8-8-3-6-8-6-3-6-8-10-8-8-6-6-3-3-3-3--|
E|---------6-6-6-6-1-4-6-4-1-4-6--8-6-6-4-4-1-1-1-1--|
                   .............................

Coros:
e|------------------------------------------------------------------|
B|------------------------------------------------------------------|
G|------------------------------------------------------6-8-10------|
D|--3-3-3-3-6-6-6-6-8-8-6-5-3-3-3-3-3-3-3-3-6-6-6-6-8-8-6-8-10------|
A|--3-3-3-3-6-6-6-6-8-8-6-5-3-3-3-3-3-3-3-3-6-6-6-6-8-8-4-6--8------|
E|--1-1-1-1-4-4-4-4-6-6-4-3-1-1-1-1-1-1-1-1-4-4-4-4-6-6-------------|

.....=palm muted

Fin
-------------------------------------------------------------------------------
			   Anyone Listening
-------------------------------------------------------------------------------



Intro
e|----------------------------------|------------------|
B|----------------------------------|------------------|
G|-----------------------------14---|------10--5-------|
D|------14---17---14----------------|---7--10--5--5----|
A|---------------------17--17-------|---7---8--3--5----|
E|--17------------------------------|---5---------3----|

Verso
e|------------------------------------------|
B|------------------------------------------|
G|---------10-10-10-10--5-5-5-5-------------|
D|-7-7-7-7-10-10-10-10--5-5-5-5--5-5-5-5----|
A|-7-7-7-7--8--8--8--8--3-3-3-3--5-5-5-5----|
E|-5-5-5-5-----------------------3-3-3-3----|
   p.m--   --------     -----    -----

Coro
e|-----|---------------|-----|
B|-----|---------------|-----|
G|-----|---------------|--7--|
D|-3-5-|-7-7-7-7--3--5-|--7--|
A|-3-5-|-7-7-7-7--3--5-|--5--|
E|-1-3-|-5-5-5-5--1--3-|-----|
         p.m--

Otro
e|-------------------------------------------------------|
B|-------------------------------------------------------|
G|-10-10-10-10-10-10-10-10-10-10-10-10-------------------|  Repetir
D|-10-10-10-10-10-10-10-10-10-10-10-10-7-7-7-7-7-7-7-7---|  3 veces
A|--8--8--8--8--8--8--8--8--8--8--8--8-7-7-7-7-7-7-7-7---|
E|-------------------------------------5-5-5-5-5-5-5-5---|

e|-----------------------------------------------------|
B|-----------------------------------------------------|
G|-10-10-10-10-10-10-10-10--12-12-12-12-12-12-12-12----|
D|-10-10-10-10-10-10-10-10--12-12-12-12-12-12-12-12----|
A|--8--8--8--8--8--8--8--8--10-10-10-10-10-10-10-10----|
E|-----------------------------------------------------|

Fin
Comments