Pennywise - Knocked Down Chords & Tabs

 

Knocked Down Chords & Tabs

Pennywise Chords & Tabs

Version: 1 Type: Tab 0 ratings
1 star 2 stars 3 stars 4 stars 5 stars
comments

Knocked Down Tab

   
pennywise
knocked down
the fuse ('05)
----------------------------------------------------------------------------
tabber: Wobbler
standart tuning
----------------------------------------------------------------------------
YEAH IT'S OUT!!! i was very surprised because i saw in the net that the release is the 08/08/2005
..........................buy this great album!!!!..................
this is the first title of the new album and its my fave...

i updatet the tab because i did some silly mistakes...thanks at jonnie damaschke for his help...enjoy

intro guitar two 
e|--------------------------------------|
B|--------------------------------------|
G|---10--10--10--10-1010---8--88-8-6----|
D|----------------------------------8-6-|
A|-88--88--88--88--------66-66----------|
E|--------------------------------------|
pm ..  ..  ..  ..        .. ..
e|--------------------------------------|
B|--------------------------------------|
G|---10--10--10--10-1010---8--88-8-6----|
D|----------------------------------8-6-|
A|-88--88--88--88--------66-66----------|
E|--------------------------------------|
   ..  ..  ..  ..        .. ..
e|------------------------------|
B|------------------------------|
G|---10--10--10--10-1010---8--8-|
D|------------------------------|
A|-88--88--88--88--------66-66--|
E|------------------------------|
   ..  ..  ..  ..        .. ..                                            
intro guitar one (comes in at 0:05)
e|-----------------------------------------------------------------------|
B|-----------------------------------------------------------------------|
G|----------666-6-66--------------6-------------666-6-66------------6----|
D|-888-8-88-666-6-66-666-6-66-4-4-6-6--888-8-88-666-6-66-666-6-66-4-6-6~-|
A|-888-8-88-444-4-44-666-6-66-4-4-4-6--888-8-88-444-4-44-666-6-66-4-4-6~-|
E|-666-6-66----------444-4-44-2-2---4--666-6-66----------444-4-44-2---4~-|

fill 
e|------|
B|------| 
G|------|
D|-4-4--|
A|-4-4--|
E|-2-2--|

verse \"one hundred million souls..."\
e|------------------------------------------------------------------------|
B|------------------------------------------------------------------------|
G|----------666-6-66--------------6-------------666-6-66--------------6---|
D|-888-8-88-666-6-66-666-6-66-4-4-6-6--888-8-88-666-6-66-666-6-66-4-4-6-6-|
A|-888-8-88-444-4-44-666-6-66-4-4-4-6--888-8-88-444-4-44-666-6-66-4-4-4-6-|
E|-666-6-66----------444-4-44-2-2---4--666-6-66----------444-4-44-2-2---4-|

e|------------------------------------------------------------------------|
B|------------------------------------------------------------------------|
G|----------666-6-66--------------6-------------666-6-66--------------6---|
D|-888-8-88-666-6-66-666-6-66-4-4-6-6--888-8-88-666-6-66-666-6-66-4-4-6-6-|
A|-888-8-88-444-4-44-666-6-66-4-4-4-6--888-8-88-444-4-44-666-6-66-4-4-4-6-|
E|-666-6-66----------444-4-44-2-2---4--666-6-66----------444-4-44-2-2---4-|
pm ...   .  ...   .  ...   .           ...   .  ...   .  ...   .

chorus \"knocked down stumble then you fall..."\ (not sure 'bout strumming)
e|-------------------------------------------------------------------------|
B|-------------------------------------------------------------------------|
G|-------------------------------------------------------------------------|
D|-4-4-4-44-44-4-44-6-6-6-66-66-6-66-4-4-4-44-44-4-44-6-6-6-66-66-pickslide|
A|-4-4-4-44-44-4-44-6-6-6-66-66-6-66-4-4-4-44-44-4-44-6-6-6-66-66----------|
E|-2-2-2-22-22-2-22-4-4-4-44-44-4-44-2-2-2-22-22-2-22-4-4-4-44-44----------|

after chorus guitar one
e|-----------------------------------------------------------------------|
B|-----------------------------------------------------------------------|
G|----------666-6-66--------------6-------------666-6-66------------6----|
D|-888-8-88-666-6-66-666-6-66-4-4-6-6--888-8-88-666-6-66-666-6-66-4-6-6~-|
A|-888-8-88-444-4-44-666-6-66-4-4-4-6--888-8-88-444-4-44-666-6-66-4-4-6~-|
E|-666-6-66----------444-4-44-2-2---4--666-6-66----------444-4-44-2---4~-|

after chorus guitar two
e|--------------------------------------|
B|--------------------------------------|
G|---10--10--10--10-1010---8--88-8-6----|
D|----------------------------------8-6-|
A|-88--88--88--88--------66-66----------|
E|--------------------------------------|
   ..  ..  ..  ..        .. ..
e|------------------------------|
B|------------------------------|
G|---10--10--10--10-1010---8--8-|
D|------------------------------|
A|-88--88--88--88--------66-66--|
E|------------------------------|
   ..  ..  ..  ..        .. ..      

fill 
e|------|
B|------| 
G|------|
D|-4-4--|
A|-4-4--|
E|-2-2--|

verse \"so many hopeless lives..."\
e|------------------------------------------------------------------------|
B|------------------------------------------------------------------------|
G|----------666-6-66--------------6-------------666-6-66--------------6---|
D|-888-8-88-666-6-66-666-6-66-4-4-6-6--888-8-88-666-6-66-666-6-66-4-4-6-6-|
A|-888-8-88-444-4-44-666-6-66-4-4-4-6--888-8-88-444-4-44-666-6-66-4-4-4-6-|
E|-666-6-66----------444-4-44-2-2---4--666-6-66----------444-4-44-2-2---4-|

e|------------------------------------------------------------------------|
B|------------------------------------------------------------------------|
G|----------666-6-66--------------6-------------666-6-66--------------6---|
D|-888-8-88-666-6-66-666-6-66-4-4-6-6--888-8-88-666-6-66-666-6-66-4-4-6-6-|
A|-888-8-88-444-4-44-666-6-66-4-4-4-6--888-8-88-444-4-44-666-6-66-4-4-4-6-|
E|-666-6-66----------444-4-44-2-2---4--666-6-66----------444-4-44-2-2---4-|
pm ...   .  ...   .  ...   .           ...   .  ...   .  ...   .

chorus \"knocked down stumble then you fall..."\ (not sure 'bout strumming)
e|---------------------------------------------------------------------|
B|---------------------------------------------------------------------|
G|---------------------------------------------------------------------|
D|-4-4-4-44-44-4-44-6-6-6-66-66-6-66-4-4-4-44-44-4-44-6-6-6-66-66-6-66-|
A|-4-4-4-44-44-4-44-6-6-6-66-66-6-66-4-4-4-44-44-4-44-6-6-6-66-66-6-66-|
E|-2-2-2-22-22-2-22-4-4-4-44-44-4-44-2-2-2-22-22-2-22-4-4-4-44-44-4-44-|
[ Tab from: http://www.guitartabs.cc/tabs/p/pennywise/knocked_down_tab.html ]
bridge \"...fall.."\
e|----------------------------------------------------------------------|
B|----------------------------------------------------------------------|
G|----------------------------------------------------------------------|
D|-4444-4-444444-4-44/6-666-6-666666-6-66\4-444-4-444444-4-44/6666-6-66-|
A|-4444-4-444444-4-44/6-666-6-666666-6-66\4-444-4-444444-4-44/6666-6-66-|
E|-2222-2-222222-2-22/4-444-4-444444-4-44\2-222-2-222222-2-22/4444-4-44-|
pm ....   ......        ...   ......        ...   ......      ....   ..

e|------------------|
B|------------------|
G|------------------|
D|-6-6-66-pickslide-|
A|-6-6-66-----------|
E|-4-4-44-----------|

solo rythm (solo is for me to hard,so...)
e|------------------------------------------------------------------------|
B|------------------------------------------------------------------------|
G|----------666-6-66--------------6-------------666-6-66--------------6---|
D|-888-8-88-666-6-66-666-6-66-4-4-6-6--888-8-88-666-6-66-666-6-66-4-4-6-6-|
A|-888-8-88-444-4-44-666-6-66-4-4-4-6--888-8-88-444-4-44-666-6-66-4-4-4-6-|
E|-666-6-66----------444-4-44-2-2---4--666-6-66----------444-4-44-2-2---4-|

e|-------------------------------------------------------------------------|
B|-------------------------------------------------------------------------|
G|----------666-6-66--------------6-------------666-6-66----------8-8-10-10|
D|-888-8-88-666-6-66-666-6-66-4-4-6-6--888-8-88-666-6-66-666-6-66-8-8-10-10|
A|-888-8-88-444-4-44-666-6-66-4-4-4-6--888-8-88-444-4-44-666-6-66-6-6--8--8|
E|-666-6-66----------444-4-44-2-2---4--666-6-66----------444-4-44----------|

interlude \"knocked down stumble then you fall"\
e|---------------------------------------------------------------|
B|---------------------------------------------------------------|
G|---------------------------------------------------------------|
D|---------------------------------------------------------------|
A|---------------------------------------------------------------|
E|-2222222222222222-4444444444444444-2222222222222222-4444444444-|
pm ................ ................ ................ ..........
chorus guitar one \"knocked down stumble then you fall..."\
e|---------------------------------------------------------------------|
B|---------------------------------------------------------------------|
G|---------------------------------------------------------------------|
D|-4-4-4-44-44-4-44-6-6-6-66-66-6-66-4-4-4-44-44-4-44-6-6-6-66-66-6-66-|
A|-4-4-4-44-44-4-44-6-6-6-66-66-6-66-4-4-4-44-44-4-44-6-6-6-66-66-6-66-|
E|-2-2-2-22-22-2-22-4-4-4-44-44-4-44-2-2-2-22-22-2-22-4-4-4-44-44-4-44-|

chorus guitar two
e|---------------------------------------------------------------------|
B|---------------------------------------------------------------------|
G|------/7-777-7--------/9-999-9-----------/7-777-7---------/9-999-9---|
D|-------x-xxx-x---------x-xxx-x------------x-xxx-x----------x-xxx-x---|
A|------/5-555-5--------/7-777-7-----------/5-555-5---------/7-777-7---|
E|---------------------------------------------------------------------|

chorus guitar one \"knocked down..."\
e|---------------------------------------------------------------------|
B|---------------------------------------------------------------------|
G|---------------------------------------------------------------------|
D|-4-4-4-44-44-4-44-6-6-6-66-66-6-66-4-4-4-44-44-4-44-6-6-6-66-66-6-66-|
A|-4-4-4-44-44-4-44-6-6-6-66-66-6-66-4-4-4-44-44-4-44-6-6-6-66-66-6-66-|
E|-2-2-2-22-22-2-22-4-4-4-44-44-4-44-2-2-2-22-22-2-22-4-4-4-44-44-4-44-|

chorus guitar two
e|---------------------------------------------------------------------|
B|---------------------------------------------------------------------|
G|-7-77777777777-666-4-444444444444-7-77777777777-666-9-99999999999999-|
D|-x-xxxxxxxxxxx-xxx-x-xxxxxxxxxxxx-x-xxxxxxxxxxx-xxx-x-xxxxxxxxxxxxxx-|
A|-5-55555555555-444-2-222222222222-5-55555555555-444-7-77777777777777-|
E|---------------------------------------------------------------------|
then pickslide

outro guitar one
e|----------------------------------------------------------------------|
B|----------------------------------------------------------------------|
G|----------666-6-66--------------6-------------666-6-66------------6---|
D|-888-8-88-666-6-66-666-6-66-4-4-6-6--888-8-88-666-6-66-666-6-66-4-6-6-|
A|-888-8-88-444-4-44-666-6-66-4-4-4-6--888-8-88-444-4-44-666-6-66-4-4-6-|
E|-666-6-66----------444-4-44-2-2---4--666-6-66----------444-4-44-2---4-|

e|-----------------------------------------------------------------------|
B|-----------------------------------------------------------------------|
G|----------666-6-66--------------6-------------666-6-66------------6----|
D|-888-8-88-666-6-66-666-6-66-4-4-6-6--888-8-88-666-6-66-666-6-66-4-6-6~-|
A|-888-8-88-444-4-44-666-6-66-4-4-4-6--888-8-88-444-4-44-666-6-66-4-4-6~-|
E|-666-6-66----------444-4-44-2-2---4--666-6-66----------444-4-44-2---4~-|

e|--------|
B|--------| 
G|--------|
D|-4-4--8-|
A|-4-4--8-|
E|-2-2--6-|

outro guitar two
e|--------------------------------------|
B|--------------------------------------|
G|---10--10--10--10-1010---8--88-8-6----|
D|----------------------------------8-6-|
A|-88--88--88--88--------66-66----------|
E|--------------------------------------|
pm ..  ..  ..  ..        .. ..

e|--------------------------------------|
B|--------------------------------------|
G|---10--10--10--10-1010---8--88-8-6----|
D|----------------------------------8-6-|
A|-88--88--88--88--------66-66----------|
E|--------------------------------------|
pm ..  ..  ..  ..        .. ..
e|--------------------------------------|
B|--------------------------------------|
G|---10--10--10--10-1010---8--88-8-6----|
D|----------------------------------8-6-|
A|-88--88--88--88--------66-66----------|
E|--------------------------------------|
   ..  ..  ..  ..        .. ..
e|------------------------------|
B|------------------------------|
G|---10--10--10--10-1010---8--8-|
D|------------------------------|
A|-88--88--88--88--------66-66--|
E|------------------------------|
   ..  ..  ..  ..        .. ..  

thats it...maybe not 100 % but you should get it when you listen...
comments at el_diablo7th@freenet.de
Comments