Pennywise - Its Up To You Chords & Tabs

 

Its Up To You Chords & Tabs

Pennywise Chords & Tabs

Version: 3 Type: Tab 0 ratings
1 star 2 stars 3 stars 4 stars 5 stars
comments

Its Up To You Tab

   
pennywise
it's up to you
land of the free?
----------------------------------------------------------------------------
tabber: Wobbler
standart tuning
----------------------------------------------------------------------------
the solo is very simple and sounds nice....good for beginners(like me)
so i added it...enjoY

intro
e|-------------------------------------------|
B|-------------------------------------------|
G|--------1010-101010------------------------|
D|-77-777-1010-101010-1010-101010-55-5-5-5-5-|
A|-77-777--8-8--8-8-8-1010-101010-55-5-5-5-5-|
E|-55-555--------------8-8--8-8-8-33-3-3-3-3-|
pm                                     . . .

e|----------------------------------------------|
B|----------------------------------------------|
G|--------1010-101010-------------1212-12\10/12-|
D|-77-777-1010-101010-1010-101010-1212-12\10/12-|
A|-77-777--8-8--8-8-8-1010-101010-1010-10\-8/10-|
E|-55-555--------------8-8--8-8-8---------------|

e|-------------------------------------------|
B|-------------------------------------------|
G|--------1010-101010------------------7\5/7-|
D|-77-777-1010-101010-1010-101010-55-5-7\5/7-|
A|-77-777--8-8--8-8-8-1010-101010-55-5-5\3/5-|
E|-55-555--------------8-8--8-8-8-33-3-------|

e|-------------------------------------------|
B|-------------------------------------------|
G|--------1010-101010-------------1212-12-12-|
D|-77-777-1010-101010-1010-101010-1212-12-12-|
A|-77-777--8-8--8-8-8-1010-101010-1010-10-10-|
E|-55-555--------------8-8--8-8-8------------|

verse \"i see things happening..."\
e|-----------------------------------------------------|
B|-----------------------------------------------------|
G|----------1010101010101010-----------------------7-7-|
D|-77777777-1010101010101010-1010101010101010-5555-7-7-|
A|-77777777--8-8-8-8-8-8-8-8-1010101010101010-5555-5-5-|
E|-55555555-------------------8-8-8-8-8-8-8-8-3333-----|
pm ........ ................ ................ ....

e|----------------------------------------------------------|
B|----------------------------------------------------------|
G|----------1010101010101010------------------1212-12\10/12-|
D|-77777777-1010101010101010-1010101010101010-1212-12\10/12-|
A|-77777777--8-8-8-8-8-8-8-8-1010101010101010-1010-10\-8/10-|
E|-55555555-------------------8-8-8-8-8-8-8-8---------------|
pm ........ ................ ................

e|-------------------------------------------|
B|-------------------------------------------|
G|--------1010-101010------------------7\5/7-|
D|-77-777-1010-101010-1010-101010-55-5-7\5/7-|
A|-77-777--8-8--8-8-8-1010-101010-55-5-5\3/5-|
E|-55-555--------------8-8--8-8-8-33-3-------|

e|-------------------------------------------|
B|-------------------------------------------|
G|--------1010-101010-------------1212-12-12-|
D|-77-777-1010-101010-1010-101010-1212-12-12-|
A|-77-777--8-8--8-8-8-1010-101010-1010-10-10-|
E|-55-555--------------8-8--8-8-8------------|

pre-chorus \"is it so wrong..."\
e|-----------------------------------------------|
B|-----------------------------------------------|
G|---------------------1010-101010-101010-101010-|
D|-77-7-77-7-55-5-55-5-1010-101010-101010-101010-|
A|-77-7-77-7-55-5-55-5--8-8--8-8-8--8-8-8--8-8-8-|
E|-55-5-55-5-33-3-33-3---------------------------|
pm ..   ..   ..   ..
e|---------------------------------------------|
B|---------------------------------------------|
G|---------------------1010-101010-101010-1010-|
D|-77-7-77-7-55-5-55-5-1010-101010-101010-1010-|
A|-77-7-77-7-55-5-55-5--8-8--8-8-8--8-8-8--8-8-|
E|-55-5-55-5-33-3-33-3-------------------------|
pm ..   ..   ..   ..

chorus \"is it a crime to want things..."\
e|-------------------------------------------|
B|-------------------------------------------|
G|-------------------------------------------|
D|-1010-10-101010-55-5-555-77-7-777-33-3-333-|
A|-1010-10-101010-55-5-555-77-7-777-33-3-333-|
E|--8-8--8--8-8-8-33-3-333-55-5-555-11-1-111-|

e|------------------------------------------|
B|------------------------------------------|
G|------------------------------------------|
D|-1010-10-101010-55-5-555-33-333-333-3-3-5-|
A|-1010-10-101010-55-5-555-33-333-333-3-3-5-|
E|--8-8--8--8-8-8-33-3-333-11-111-111-1-1-3-|
pm                         .. ... ... .
[ Tab from: http://www.guitartabs.cc/tabs/p/pennywise/its_up_to_you_tab_ver_3.html ]
after chorus
e|-----------------------------------------|
B|-----------------------------------------|
G|--------1010------12--------1010------12-|
D|-77-777-1010-1010-12-77-777-1010-1010-12-|
A|-77-777--8-8-1010-10-77-777--8-8-1010-10-|
E|-55-555-------8-8----55-555-------8-8----|

e|-------------------------------------------|
B|-------------------------------------------|
G|--------1010-101010-------------1212-12-12-|
D|-77-777-1010-101010-1010-101010-1212-12-12-|
A|-77-777--8-8--8-8-8-1010-101010-1010-10-10-|
E|-55-555--------------8-8--8-8-8------------|

verse \"wish i could be like you..."\
pre-chorus (end with pickslide)
chorus

solo
e|-------------------------------------------|
B|-------------------------------------------|
G|-------------------------------------------|
D|-------------------------------------------|
A|-----7-8-7-8-10-8-7-8-7-------7-8-7-8-5~~~-|
E|-5-8--------------------8-5-8--------------|

e|-----------------------------------------------|
B|-----------------------------------------------|
G|-----------------------------------------------|
D|-----------------------------------10-9--------|
A|-----7-8-7-8-10-8-7-8-7-5---7-8-10------10~~~~-|
E|-5-8----------------------8--------------------|

solo rythm (exact strumming find out yourself)
e|--------------------------------------------------------------------|
B|--------------------------------------------------------------------|
G|------------------10101010101010101010101010101010------------------|
D|-7777777777777777-10101010101010101010101010101010-7777777777777777-|
A|-7777777777777777--8-8-8-8-8-8-8-8-8-8-8-8-8-8-8-8-7777777777777777-|
E|-5555555555555555----------------------------------5555555555555555-|

e|---------------------------------------------------------------------|
B|---------------------------------------------------------------------|
G|------------------------------------10101010101010101010101010101010-|
D|-5555555555555555--7777777777777777-10101010101010101010101010101010-|
A|-5555555555555555--7777777777777777--8-8-8-8-8-8-8-8-8-8-8-8-8-8-8-8-|
E|-3333333333333333--5555555555555555----------------------------------|

e|-------------------------------------------------------------------|
B|-------------------------------------------------------------------|
G|----------------------------------1212121212121212-----------------|
D|-10101010101010101010101010101010-1212121212121212-\\\pickslide\\\-|
A|-10101010101010101010101010101010-1010101010101010-----------------|
E|--8-8-8-8-8-8-8-8-8-8-8-8-8-8-8-8----------------------------------|

pre-chorus
chorus

bridge
e|-------------------------------------------------------------------|
B|-------------------------------------------------------------------|
G|-------------------------------------------------------------------|
D|-10-101010101010-5-555555-3-3333333333333-10-101010101010-5-555555-|
A|-10-101010101010-5-555555-3-3333333333333-10-101010101010-5-555555-|
E|--8--8-8-8-8-8-8-3-333333-1-1111111111111--8--8-8-8-8-8-8-3-333333-|
pm    ............   ......   .............    ............   ......
e|------------|
B|------------|
G|------------|
D|-3-333333-3-|
A|-3-333333-3-|
E|-1-111111-1-|
pm   ......

breakdown \"it's up to you"\
e|------------------------------------------------------------------------|
B|------------------------------------------------------------------------|
G|------------------------------------------------------------1010-101010-|
D|-1010-101010-55-555-33-333-33-333-1010-101010-55-555-33-333-1010-101010-|
A|-1010-101010-55-555-33-333-33-333-1010-101010-55-555-33-333--8-8--8-8-8-|
E|--8-8--8-8-8-33-333-11-111-11-111--8-8--8-8-8-33-333-11-111-------------|

outro \"...you..."\
e|-------------------------------------------------------------------|
B|-------------------------------------------------------------------|
G|-------------------------------------------------------------------|
D|-10-101010101010-5-555555-3-3333333333333-10-101010101010-5-555555-|
A|-10-101010101010-5-555555-3-3333333333333-10-101010101010-5-555555-|
E|--8--8-8-8-8-8-8-3-333333-1-1111111111111--8--8-8-8-8-8-8-3-333333-|
pm    ............   ......   .............    ............   ......
e|----------------------------|
B|----------------------------|
G|----------------------------|
D|-3-333333333-3-1010-7~~~-7--|
A|-3-333333333-3-1010-7~~~-7--|
E|-1-111111111-1--8-8-5~~~-5--|
pm   .........

thats it...look for correct strumming and you'll get it perfectly
el_diablo7th@freenet.de
cYa
Comments