Pennywise - Holiday In The Sun Chords & Tabs

 

Holiday In The Sun Chords & Tabs

Pennywise Chords & Tabs

Version: 1 Type: Tab 0 ratings
1 star 2 stars 3 stars 4 stars 5 stars
comments

Holiday In The Sun Tab

It s on the new very good album. song 8 its standart tuning.

let`s go:

Intro
e----------------------            ------------
b----------------------            ------------
g--9xxx------7xxx------ at the end ------------
d--9xxx-5xxx-7xxx-9xxx-            ---9-7-9-12-
a--7xxx-5xxx-5xxx-9xxx-            ---9-7-9-12-
e-------3xxx------7xxx-            ---7-5-7-10-

Verse:

the same but no mute

e--------------------------
b--------------------------
g--9999------7777----------
d--9999-5555-7777-99-7-9---
a--7777-5555-5555-99-7-9---
e-------3333------77-5-7-10h

Pre chorus:
e----------------------
b----------------------
g----------------------
d--7-7-7-7--9-9-9-9----  pick slide
a--7-7-7-7--9-9-9-9----
e--5-5-5-5--7-7-7-7----   
pm..................

Chorus same as Verse but other rythm

Solo (it`s not 100%)
[ Tab from: http://www.guitartabs.cc/tabs/p/pennywise/holiday_in_the_sun_tab.html ]
e------------------------------------------------------------------
b------------------------------------------------------------------ 
g--7---10-12-10-7---10-12-10-7~~7---10-12-10-7---10-12-10--12~-11--
d------------------------------------------------------------------
a------------------------------------------------------------------
e------------------------------------------------------------------

e-----------------------------------------------------
b-----------------------------------------------------
g--11~~~~~~-12~~~~~~-14~~~~~14^^^^^^------------------
d-------------------------------------55-444----------
a--------------------------------------------55-44-22-
e-----------------------------------------------------

bridge
e----------------
b----------------
g--55555--77777--
d--55555--77777--
a--33333--55555--
e----------------


questions e mail: Tom_cobain@hotmail.com   
HAVE Fun :-)
Comments