Pennywise - Greed Chords & Tabs

 

Greed Chords & Tabs

Pennywise Chords & Tabs

Version: 2 Type: Bass Tab 0 ratings
1 star 2 stars 3 stars 4 stars 5 stars
comments

Greed Bass Tab

                                  Greed/Pennywise
                               Album: Straight Ahead

Tabbed by Jonathan St-Pierre

Intro:
G|----------|
D|----------|
A|-------46-|
E|-1-4-6----|


Part 1:
G|---------------------|-------------------|
D|---------------------|-------------------|
A|---------------------|-----------444-666-|
E|-1111-1111-4444-4444-|-6666-6666---------|

Fill 1:
1E|-1111-1111-|

Part 2:
            (x3)                               (x4)
G|-------------|----------------------|-----------|
D|*------------|---------------------*|-----------|
A|*-----1-4-66-|-6666-6666-4444-4444-*|-----------|
E|-1-4---------|----------------------|-1111-1114-|

[ Tab from: http://www.guitartabs.cc/tabs/p/pennywise/greed_btab_ver_2.html ]
Part 3:                            (x3)                                 (x1)
G|------------------------------------|------------------------------------|
D|--------------2---------------------|--------------2---------------------|
A|-6666-6666-666----------------------|-6666-6666-666--4444-4444-----------|
E|----------------4444-4444-6666-6666-|--------------------------6666-6666-|

Fill 2:
G|---|----------|
D|---|*--------*|
A|---|*--------*| 
E|-1-|-66-4-4-1-|
   \(Let ring 4 seconds)

Then play Part 2 and Part 3...

...and this after:
G|---|-64----------|
D|---|----64-------|
A|---|-------64----|
E|-1-|----------64-|
   \(let ring a long time)

End with part 1...
...and end for real with E|-1-|

For comments or corrections, e-mail me at jonath01@hotmail.com
Comments