Pennywise - Gone Chords & Tabs

 

Gone Chords & Tabs

Pennywise Chords & Tabs

Version: 1 Type: Tab 0 ratings
1 star 2 stars 3 stars 4 stars 5 stars
comments

Gone Tab

   
---------------------------------------------------------------------
          Gone - Pennywise
---------------------------------------------------------------------


intro:
e-|---------------------------------------------------------------------
B-|---------------------------------------------------------------------
G-|---------------------------------7-7-7-7-5-5-5-5---------------------
D-|-2--5--7-7-2--5--7-7-2-2-2-2-2-2-2-2-7-7-7-7-5-5-5-5-5-5-5-5-5-5-5-5-
A-|-2--5--7-7-2--5--7-7-2-2-2-2-2-2-2-2-5-5-5-5-3-3-3-3-5-5-5-5-5-5-5-5-
E-|-0--3--5-5-0--3--5-5-0-0-0-0-0-0-0-0-----------------3-3-3-3-3-3-3-3-

e-|---------------------------------------------------------------------|
B-|---------------------------------------------------------------------|
G-|-----------------------------7-7-7-7-5-5-5-5-12-12-12-12-14-14-14-14-|
D-|-7-7-7-7-7-7-2-2-2-2-2-2-2-2-5-5-5-5-5-5-5-5-12-12-12-12-14-14-14-14-|
A-|-7-7-7-7-7-7-2-2-2-2-2-2-2-2-5-5-5-5-3-3-3-3-10-10-10-10-12-12-12-12-|
E-|-5-5-5-5-5-5-0-0-0-0-0-0-0-0-----------------------------------------|
[ Tab from: http://www.guitartabs.cc/tabs/p/pennywise/gone_tab.html ]
Verse:
e-|-------------------------------------------------------------
B-|-------------------------------------------------------------
G-|-----------------7-7-7-7-5-5-5-5-----------------------------
D-|-2-2-2-2-2-2-2-2-5-5-5-5-5-5-5-5-5-5-5-5-5-5-5-5-7-7-7-7-7-7-
A-|-2-2-2-2-2-2-2-2-5-5-5-5-3-3-3-3-5-5-5-5-5-5-5-5-7-7-7-7-7-7-
E-|-0-0-0-0-0-0-0-0-----------------3-3-3-3-3-3-3-3-5-5-5-5-5-5-

e-|---------------------------------------------------------|
B-|---------------------------------------------------------|
G-|-----------------7-7-7-7-5-5-5-5-12-12-12-12-14-14-14-14-|
D-|-2-2-2-2-2-2-2-2-5-5-5-5-5-5-5-5-12-12-12-12-14-14-14-14-|
A-|-2-2-2-2-2-2-2-2-5-5-5-5-3-3-3-3-10-10-10-10-12-12-12-12-|
E-|-0-0-0-0-0-0-0-0-----------------------------------------|

Chorus:
e-|-------------------------------------------------|
B-|-------------------------------------------------|
G-|-----------------5-5-5-5-------------------------|
D-|-2-2-2-2-2-2-2-2-5-5-5-5-2-2-2-2-2-2-2-2-7-7-7-7-|   x2
A-|-2-2-2-2-2-2-2-2-3-3-3-3-0-0-0-0-0-0-0-0-7-7-7-7-|
E-|-0-0-0-0-0-0-0-0---------0-0-0-0-0-0-0-0-5-5-5-5-|

Bridge:


e-|-----------------------------------------------------------|
B-|-----------------------------------------------------------|
e-|---------7-7-5-5---------9-9-7-7---------7-7-5-5---------9-| x2
B-|-7-7-7-7-7-7-5-5-5-5-5-5-9-9-7-7-7-7-7-7-7-7-5-5-5-5-5-5-9-|
e-|-7-7-7-7-5-5-3-3-5-5-5-5-7-7-5-5-7-7-7-7-5-5-3-3-5-5-5-5-7-|
B-|-5-5-5-5---------3-3-3-3---------5-5-5-5---------5-5-5-5---|
Comments