Pennywise - Go Away Chords & Tabs

 

Go Away Chords & Tabs

Pennywise Chords & Tabs

Version: 1 Type: Bass Tab 0 ratings
1 star 2 stars 3 stars 4 stars 5 stars
comments

Go Away Bass Tab

   
Song:GO AWAY
Band:PENNYWISE
Album:FULL CIRCLE
tabbed by:MOKE
G:------------------------------------------------------------------------------
D:------------------------------------------------------------------------------
A:-7-7-7-7-7-7-7--9-5-5-5-5-5-5-5-5-7-7-7-7--9-10-5-5-5-5-5-5-5-5--7-7-7-7-
E:------------------3-3-3-3-3-3-3-3---------------3-3-3-3---------------------
[ Tab from: http://www.guitartabs.cc/tabs/p/pennywise/go_away_btab.html ]
G:---------------------------------------------------------------
D:---------------------------------------------------------------
A:-7-7-7--9-5-5-5-5-5-5-5-5-2-2-2-2-2-2-2-2-5-2-0-5-7--7--7--
E:----------3-3-3-3-3-3-3-3-------------------------------------

G:------ ----------------------------------------------------------------
D:----------------------------------------------------------------------
A:-7-7-5-7-3-3-5-5-7-7-5-7-3-3-5-5-7-7-5-7-3-3-5-5-2-2-2-2-5-2-0-2-
E:-----3-5 -------------3-5-------------3-5-----------------------------
Comments