Pennywise - Fun And Games Chords & Tabs

 

Fun And Games Chords & Tabs

Pennywise Chords & Tabs

Version: 1 Type: Tab 0 ratings
1 star 2 stars 3 stars 4 stars 5 stars
comments

Fun And Games Tab

   
Pennywise
"Fun and Games"
s/t
tabbed by Daaaaaaavid
daaaaaaavid@hotmail.com

--------------------------------

Chords:

   E5  B5  Db5  A5  D5  Db5 C5  G5  E5  Gb5 B5
                        II          II      II
e|---------- ---------------------------------|
B|---------- ---------------------------------|
G|-9-------- -------7---6---5---------------4-|
D|-9---9---11---7---7---6---5---5---2---4---4-|
A|-7---9---11---7---5---4---3---5---2---4---2-|
E|-----7---9 ---5---------------3---0---2-----|

Riff 1:

e|-------------|
B|-------------|
G|-------------|
D|---6-7-9-7-6-|
A|-7-----------|
E|-------------|

Riff 2:

e|-------------|
B|-------------|
G|-------------|
D|---4-5-7-5-4-|
A|-5-----------|
E|-------------|

Riff 3:

e|-- -- -- -- ---|
B|-- -- -- -- ---|
G|-12-12-12-11-7-|
D|-- -- -- -- ---|
A|-- -- -- -- ---|
E|-- -- -- -- ---|

---------------------------------

Intro:

E5 - B5 - Db5 - A5
E5 - B5 - D5

Verse:

E5 - B5 - Db5 - A5
E5 - B5 - D5

(2x)

Chorus:
[ Tab from: http://www.guitartabs.cc/tabs/p/pennywise/fun_and_games_tab.html ]
E5 - Db5(II) - D5 - A5 - B5
E5 - Db5(II) - D5 - A5 - B5
E5 - Db5(II) - D5 - A5 - B5 - D5

(2x)

E5 - Riff 1
D5 - Riff 2
E5 - Riff 1
D5 - C5 - G5 - A5

(2x)

E5(II) - Gb5 - G5
B5(II) - G5 - B5(II) - E5(II)
E5(II) - Gb5 - G5
B5(II) - G5 - B5(II) - E5

(2x)

Verse:

E5 - B5 - Db5 - A5
E5 - B5 - D5

(2x)

Chorus:

E5 - Db5(II) - D5 - A5 - B5
E5 - Db5(II) - D5 - A5 - B5
E5 - Db5(II) - D5 - A5 - B5 - D5

(2x)

E5 - D5
E5 - D5 - C5 - G5 - A5
E5 - Riff 1
D5 - Riff 2
E5 - Riff 1
D5 - C5 - G5 - A5

E5(II) - Gb5 - G5
B5(II) - G5 - B5(II) - E5(II)
E5(II) - Gb5 - G5
B5(II) - G5 - B5(II) - E5

(2x)

E5 - D5 - Riff 3
E5 - D5 - C5 - G5 - A5

(3x)

E5
Comments