Pennywise - Fuck Authority Chords & Tabs

 

Fuck Authority Chords & Tabs

Pennywise Chords & Tabs

Version: 7 Type: Tab 0 ratings
1 star 2 stars 3 stars 4 stars 5 stars
comments

Fuck Authority Tab

   
pennywise
fuck authority
land of the free?
----------------------------------------------------------------------------
tabber: Wobbler
standard tuning
----------------------------------------------------------------------------
i know its kinda late to tab out this song but i think my way to play this
song sounds very great so i did it...RATE!

() harmonic

intro 
e|------------------------------------------------------------------------|
B|------------------------------------------------------------------------|
G|-------------------55----------------------------------------55---------|
D|-55-5-55-5-55-5-55-55-88-8-88-8-88-8-88-77-33-3-33-3-33-3-33-55-55-5-55-|
A|-55-5-55-5-55-5-55-33-88-8-88-8-88-8-88-77-33-3-33-3-33-3-33-33-55-5-55-|
E|-33-3-33-3-33-3-33----66-6-66-6-66-6-66-55-11-1-11-1-11-1-11----33-3-33-|

e|-------------|
B|-------------|
G|-8-8-10-1010-|
D|-8-8-10-1010-|
A|-6-6--8--8-8-|
E|-------------|

e|-------------------------------------------------------------------------|
B|-------------------------------------------------------------------------|
G|-------------------55----------------------------------------55---------X|
D|-55-5-55-5-55-5-55-55-88-8-88-8-88-8-88-77-33-3-33-3-33-3-33-55-55-5-55-X|
A|-55-5-55-5-55-5-55-33-88-8-88-8-88-8-88-77-33-3-33-3-33-3-33-33-55-5-55-X|
E|-33-3-33-3-33-3-33----66-6-66-6-66-6-66-55-11-1-11-1-11-1-11----33-3-33-X|

e|-------------|
B|-------------|
G|-8-8-10-1010-|
D|-8-8-10-1010-|
A|-6-6--8--8-8-|
E|-------------|

verse \"someday...you gonna find another way..."\
e|-------------------------------------------------------------------------|
B|-------------------------------------------------------------------------|
G|----------------5---------------------------------5----------8-8-10-1010-|
D|-5--------------5-8--------------7-3--------------5-5--------8-8-10-1010-|
A|-5-555555555555-3-8-888888888888-7-3-333333333333-3-5-555555-6-6--8--8-8-|
E|-3-333333333333---6-666666666666-5-1-111111111111---3-333333-------------|
pm   ............     ............     ............     ......

e|-----------------------------------------------------------------------|
B|-----------------------------------------------------------------------|
G|-----------------5-----------------------------------5-----------------|
D|-55----5----5----5-88----8----8----7-33----3----3----5-55----5-5555----|
A|-55-55-5-55-5-55-3-88-88-8-88-8-88-7-33-33-3-33-3-33-3-55-55-5-5555----|
E|-33-33-3-33-3-33---66-66-6-66-6-66-5-11-11-1-11-1-11---33-33-3-3333///-|
pm    ..   ..   ..      ..   ..   ..      ..   ..   ..      ..

pre-chorus \"i say fuck authority...silent majority..."\
e|-------------------------------------------------------------------------|
B|-------------------------------------------------------------------------|
G|-------------------------------------------------------------------------|
D|-5--------------8--------------10--------------------------5-------------|
A|-5-555555555555-8-888888888888-10-101010101010101010101010-5-555555555555|
E|-3-333333333333-6-666666666666--8--8-8-8-8-8-8-8-8-8-8-8-8-3-333333333333|
pm   ............   ............    ........................   ............

e|------------------------------------------------------------------------|
B|------------------------------------------------------------------------|
G|------------------------------------------------------------------------|
D|------5--------------8--------------10--------------------------5-55555-|
A|------5-555555555555-8-888888888888-10-101010101010101010101010-5-55555-|
E|-3///-3-333333333333-6-666666666666--8--8-8-8-8-8-8-8-8-8-8-8-8-3-33333-|
then pickslide into chorus

chorus \"frustration...domination...feel the rage of a new generation..."\
e|-------------------------------------------------------------------------|
B|-------------------------------------------------------------------------|
G|-------------------------------------------------------------------------|
D|-5-555-5-8-888-8-10-101010-10-5-555/8-5-555-5-8-888-8-1010101010101010-10|
A|-5-555-5-8-888-8-10-101010-10-5-555/8-5-555-5-8-888-8-1010101010101010-10|
E|-3-333-3-6-666-6--8--8-8-8--8-3-333/6-3-333-3-6-666-6--8-8-8-8-8-8-8-8--8|

after chorus \"stop trying...stop trying..."\
e|------------------------------------------------------------------------|
B|------------------------------------------------------------------------|
G|------------------------------------------------------------------------|
D|-3-8-5-555-5-8-88-8-8-5-555-5-10-1010-10-10-5-555-5-8-88-3/8----------5-|
A|-3-8-5-555-3-6-66-6-6-5-555-3--8--8-8--8--8-5-555-3-6-66-3/8-55555555-5-|
E|-1-6-3-333------------3-333-----------------3-333--------1/6-33333333-3-|
pm                                                             ........
then pickslide into verse

verse \"you know...the time is right to take control..."\
e|-------------------------------------------------------------------------|
B|-------------------------------------------------------------------------|
G|----------------5---------------------------------5----------8-8-10-1010-|
D|-5--------------5-8--------------7-3--------------5-5--------8-8-10-1010-|
A|-5-555555555555-3-8-888888888888-7-3-333333333333-3-5-555555-6-6--8--8-8-|
E|-3-333333333333---6-666666666666-5-1-111111111111---3-333333-------------|
pm   ............     ............     ............     ......
[ Tab from: http://www.guitartabs.cc/tabs/p/pennywise/fuck_authority_tab_ver_7.html ]
e|-----------------------------------------------------------------------|
B|-----------------------------------------------------------------------|
G|-----------------5-----------------------------------5-----------------|
D|-55----5----5----5-88----8----8----7-33----3----3----5-55----5-5555----|
A|-55-55-5-55-5-55-3-88-88-8-88-8-88-7-33-33-3-33-3-33-3-55-55-5-5555----|
E|-33-33-3-33-3-33---66-66-6-66-6-66-5-11-11-1-11-1-11---33-33-3-3333///-|
pm    ..   ..   ..      ..   ..   ..      ..   ..   ..      ..

pre-chorus \"i say fuck authority...silent majority..."\
e|-------------------------------------------------------------------------|
B|-------------------------------------------------------------------------|
G|-------------------------------------------------------------------------|
D|-5--------------8--------------10--------------------------5-------------|
A|-5-555555555555-8-888888888888-10-101010101010101010101010-5-555555555555|
E|-3-333333333333-6-666666666666--8--8-8-8-8-8-8-8-8-8-8-8-8-3-333333333333|
pm   ............   ............    ........................   ............

e|------------------------------------------------------------------------|
B|------------------------------------------------------------------------|
G|------------------------------------------------------------------------|
D|------5--------------8--------------10--------------------------5-55555-|
A|------5-555555555555-8-888888888888-10-101010101010101010101010-5-55555-|
E|-3///-3-333333333333-6-666666666666--8--8-8-8-8-8-8-8-8-8-8-8-8-3-33333-|
then pickslide into chorus

chorus \"frustration...domination...feel the rage of a new generation..."\
e|--------------------------------------------------------------------|
B|--------------------------------------------------------------------|
G|--------------------------------------------------------------------|
D|-5-555-5-8-888-8-10-101010-10-5-555/8-5-555-5-8-888-8-10-101010-10--|
A|-5-555-5-8-888-8-10-101010-10-5-555/8-5-555-5-8-888-8-10-101010-10--|
E|-3-333-3-6-666-6--8--8-8-8--8-3-333/6-3-333-3-6-666-6--8--8-8-8--8--|
                   
e|---------|
B|---------|
G|---------|
D|-5-555/8-| (here is a second guitar with octave chords [i think])
A|-5-555/8-|
E|-3-333/6-|

e|-------------------------------------------------------------------------|
B|-------------------------------------------------------------------------|
G|-------------------------------------------------------------------------|
D|-5-555-5-8-888-8-10-101010-10-5-555/8-5-555-5-8-888-8-1010101010101010-10|
A|-5-555-5-8-888-8-10-101010-10-5-555/8-5-555-5-8-888-8-1010101010101010-10|
E|-3-333-3-6-666-6--8--8-8-8--8-3-333/6-3-333-3-6-666-6--8-8-8-8-8-8-8-8--8|

after chorus 
e|---------------------------------------|
B|---------------------------------------|
G|----------------------12-1212121212-12-|
D|-3-8-5-555-5-5-55-555-12-1212121212-12-|
A|-3-8-5-555-5-5-55-555------------------|
E|-1-6-3-333-3-3-33-333------------------|
then pickslide into bridge

bridge
e|----------------------------------------------------------------------|
B|----------------------------------------------------------------------|
G|----------------------------------------------------------------------|
D|-8-8-888-88-8-5-5-5-----------5-5-55-555-8-8-888-88-8-5-5-5-----------|
A|-6-6-666-88-8-3-3-5-----------5-5-55-555-6-6-666-88-8-3-3-5-----------|
E|---------66-6-----3-(3)(3)(3)-3-3-33-333---------66-6-----3-(3)(3)(3)-|

e|-------------------------------------------------------------------------|
B|-------------------------------------------------------------------------|
G|-------------------------------------------------------------------------|
D|-5-5-55-555-8-8-888-10-1010-101010-8-888-10-5-55-555-8-8-888-10-1010-8/10|
A|-5-5-55-555-6-6-666--8--8-8--8-8-8-8-888-10-5-55-555-6-6-666--8--8-8-6/-8|
E|-3-3-33-333------------------------6-666--8-3-33-333---------------------|

e|---------------------|
B|---------------------|
G|---------------------|
D|-1212121212121212-12-|
A|-1010101010101010-10-|
E|---------------------|

verse \"fuck authority...silent majority..."\
e|-----------------------------------------------------|
B|-----------------------------------------------------|
G|-----------------------------------------------------|
D|---------------------8\5--------------8--------------|
A|---------------------8\5-555555555555-8-888888888888-|
E|-bass-bass-bass-bass-6\3-333333333333-6-666666666666-|
pm                         ............   ............

e|-------------------------------------|
B|-------------------------------------|
G|-------------------------------------|
D|-/10--------------------------5-5555-|
A|-/10-101010101010101010101010-5-5555-|
E|-/-8--8-8-8-8-8-8-8-8-8-8-8-8-3-3333-|
then tapslide into chorus (let the chord ring )

chorus \"frustration...domination...feel the rage of a new generation..."\
e|-------------------------------------------------------------------------|
B|-------------------------------------------------------------------------|
G|-------------------------------------------------------------------------|
D|-5-555-5-8-888-8-10-101010-10-5-555/8-5-555-5-8-888-8-1010101010101010-10|
A|-5-555-5-8-888-8-10-101010-10-5-555/8-5-555-5-8-888-8-1010101010101010-10|
E|-3-333-3-6-666-6--8--8-8-8--8-3-333/6-3-333-3-6-666-6--8-8-8-8-8-8-8-8--8|

outro \"stop trying...stop trying..."\
e|------------------------------------------------------------------------|
B|------------------------------------------------------------------------|
G|------------------------------------------------------------------------|
D|-3-8-5-555-5-8-88-8-8-5-555-5-10-1010-10-10-5-555-5-8-88-3-8----------5-|
A|-3-8-5-555-3-6-66-6-6-5-555-3--8--8-8--8--8-5-555-3-6-66-3-8-55555555-5-|
E|-1-6-3-333------------3-333-----------------3-333--------1-6-33333333-3-|
pm                                                             ........

thats the version i play along alone and it sounds very great so have fun
email at el_daiblo7th@freenet.de
cYa!
Comments