Pennywise - Fox Tv Chords & Tabs

 

Fox Tv Chords & Tabs

Pennywise Chords & Tabs

Version: 1 Type: Tab 0 ratings
1 star 2 stars 3 stars 4 stars 5 stars
comments

Fox Tv Tab

   
pennywise
fox tv
the fuse('05)
----------------------------------------------------------------------------
tabber: Wobbler
standart tuning
----------------------------------------------------------------------------

lead part 
main riff (play when you need)
e|-------------------------------------|
B|-131311111313111113131111131311b(12)-|
G|-------------------------------------|
D|-------------------------------------|
A|-------------------------------------|
E|-------------------------------------|

solo (improvise some on the notes of the main riff)

rythm part
intro
e|---------------------------------------------------------------|
B|---------------------------------------------------------------|
G|-886688668866886----66------6---886688668866886----66------6---|
D|-886688668866886-44-66-6-66-6-6-886688668866886-44-66-6-66-6-6-|
A|-664466446644664-44-44-6-66-4-6-664466446644664-44-44-6-66-4-6-|
E|-----------------22----4-44---4-----------------22----4-44---4-|

e|-----------------------------------------------------------------|
B|-----------------------------------------------------------------|
G|-886688668866886----66------6---886688668866886----66------6---8-|
D|-886688668866886-44-66-6-66-6-6-886688668866886-44-66-6-66-6-6-8-|
A|-664466446644664-44-44-6-66-4-6-664466446644664-44-44-6-66-4-6-6-|
E|-----------------22----4-44---4-----------------22----4-44---4---|

verse \"make way for the next sensation..."\
e|----------------------------------------------------------------------|
B|----------------------------------------------------------------------|
G|-8888-------6666----6---8888-------6666----6---8888-------6666----6---|
D|-8888-4-444-6666-66-6-6-8888-4-444-6666-66-6-6-8888-4-444-6666-66-6-6-|
A|-6666-4-444-4444-66-4-6-6666-4-444-4444-66-4-6-6666-4-444-4444-66-4-6-|
E|------2-222------44---4------2-222------44---4------2-222------44---4-|

e|------------------------|
B|------------------------|
G|-8888-------6666----6---|
D|-8888-4-444-6666-66-6-6-|
A|-6666-4-444-4444-66-4-6-|
E|------2-222------44---4-|

pre-chorus \"it's primetime for the middle class..."\
e|-------------------------------------------|
B|-------------------------------------------|
G|------6---6-----------------6---6----------|
D|-8888-6-6-6-8888-4-6-6-8888-6-6-6-8888-4-6-|
A|-8888-4-6-4-8888-4-6-6-8888-4-6-4-8888-4-6-|
E|-6666---4---6666-2-4-4-6666---4---6666-2-4-|

chorus \"delusion will rule day in this society..."\
e|-------------------------------------------------------------------|
B|-------------------------------------------------------------------|
G|-8888-------6666-------8888-------6666-------8888-------6666-------|
D|-8888-4-444-6666-6-666-8888-4-444-6666-6-666-8888-4-444-6666-6-666-|
A|-6666-4-444-4444-6-666-6666-4-444-4444-6-666-6666-4-444-4444-6-666-|
E|------2-222------4-444------2-222------4-444------2-222------4-444-|

e|-------------------|
B|-------------------|
G|-8888-------6666---|
D|-8888-4-444-6666-6-|    r e A D y  g o !
A|-6666-4-444-4444-6-|
E|------2-222------4-|

pre-verse
e|-----------------------------------------------------------------|
B|-----------------------------------------------------------------|
G|-886688668866886----66------6---886688668866886----66------6---8-|
D|-886688668866886-44-66-6-66-6-6-886688668866886-44-66-6-66-6-6-8-|
A|-664466446644664-44-44-6-66-4-6-664466446644664-44-44-6-66-4-6-6-|
E|-----------------22----4-44---4-----------------22----4-44---4---|
[ Tab from: http://www.guitartabs.cc/tabs/p/pennywise/fox_tv_tab.html ]
verse \"fabricated journalism...junk news and jingolism..."\
e|----------------------------------------------------------------------|
B|----------------------------------------------------------------------|
G|-8888-------6666----6---8888-------6666----6---8888-------6666----6---|
D|-8888-4-444-6666-66-6-6-8888-4-444-6666-66-6-6-8888-4-444-6666-66-6-6-|
A|-6666-4-444-4444-66-4-6-6666-4-444-4444-66-4-6-6666-4-444-4444-66-4-6-|
E|------2-222------44---4------2-222------44---4------2-222------44---4-|

e|------------------------|
B|------------------------|
G|-8888-------6666----6---|
D|-8888-4-444-6666-66-6-6-|
A|-6666-4-444-4444-66-4-6-|
E|------2-222------44---4-|

pre-chorus \"it's primetime for the middle class..."\
e|-------------------------------------------|
B|-------------------------------------------|
G|------6---6-----------------6---6----------|
D|-8888-6-6-6-8888-4-6-6-8888-6-6-6-8888-4-6-|
A|-8888-4-6-4-8888-4-6-6-8888-4-6-4-8888-4-6-|
E|-6666---4---6666-2-4-4-6666---4---6666-2-4-|

chorus \"delusion will rule day in this society..."\
e|-------------------------------------------------------------------|
B|-------------------------------------------------------------------|
G|-8888-------6666-------8888-------6666-------8888-------6666-------|
D|-8888-4-444-6666-6-666-8888-4-444-6666-6-666-8888-4-444-6666-6-666-|
A|-6666-4-444-4444-6-666-6666-4-444-4444-6-666-6666-4-444-4444-6-666-|
E|------2-222------4-444------2-222------4-444------2-222------4-444-|

e|--------------------|
B|--------------------|
G|-8888-------6666----|
D|-8888-4-444-6666-6~-|    
A|-6666-4-444-4444-6~-|
E|------2-222------4~-|

bridge
e|-----------------------------------------------------------------|
B|-----------------------------------------------------------------|
G|-886688668866886----------------886688668866886------------------|
D|-886688668866886-----drums------886688668866886-------drums------|
A|-664466446644664----------------664466446644664------------------|
E|-----------------------------------------------------------------|

solo
e|----------------------------------------------------------------------|
B|----------------------------------------------------------------------|
G|-8888-------6666----6---8888-------6666----6---8888-------6666----6---|
D|-8888-4-444-6666-66-6-6-8888-4-444-6666-66-6-6-8888-4-444-6666-66-6-6-|
A|-6666-4-444-4444-66-4-6-6666-4-444-4444-66-4-6-6666-4-444-4444-66-4-6-|
E|------2-222------44---4------2-222------44---4------2-222------44---4-|

e|-------------------------|
B|-------------------------|
G|-8888-------6666---------|
D|-8888-4-444-6666-66------|
A|-6666-4-444-4444-66-\\\--|
E|------2-222------44------|

pre-chorus \"it's primetime for the middle class..."\
e|-------------------------------------------|
B|-------------------------------------------|
G|------6---6-----------------6---6----------|
D|-8888-6-6-6-8888-4-6-6-8888-6-6-6-8888-4-6-|
A|-8888-4-6-4-8888-4-6-6-8888-4-6-4-8888-4-6-|
E|-6666---4---6666-2-4-4-6666---4---6666-2-4-|

chorus \"delusion will rule day in this society..."\
e|-------------------------------------------------------------------|
B|-------------------------------------------------------------------|
G|-8888-------6666-------8888-------6666-------8888-------6666-------|
D|-8888-4-444-6666-6-666-8888-4-444-6666-6-666-8888-4-444-6666-6-666-|
A|-6666-4-444-4444-6-666-6666-4-444-4444-6-666-6666-4-444-4444-6-666-|
E|------2-222------4-444------2-222------4-444------2-222------4-444-|

e|-------------------|
B|-------------------|
G|-8888-------6666---|
D|-8888-4-444-6666-6-|   r e A D y  g o !  
A|-6666-4-444-4444-6-|
E|------2-222------4-|

outro
e|-----------------------------------------------------------------|
B|-----------------------------------------------------------------|
G|-886688668866886----66------6---886688668866886----66------6---8-|
D|-886688668866886-44-66-6-66-6-6-886688668866886-44-66-6-66-6-6-8-|
A|-664466446644664-44-44-6-66-4-6-664466446644664-44-44-6-66-4-6-6-|
E|-----------------22----4-44---4-----------------22----4-44---4---|

thats it 
comments at el_diablo7th@freenet.de

cheerZ
Comments