Pennywise - Fight Till You Die Chords & Tabs

 

Fight Till You Die Chords & Tabs

Pennywise Chords & Tabs

Version: 1 Type: Tab 0 ratings
1 star 2 stars 3 stars 4 stars 5 stars
comments

Fight Till You Die Tab

   
-------------------------------------------------------------------------------
			  FIGHT TILL YOU DIE - Pennywise
-------------------------------------------------------------------------------
Tabbed by: strungout777
Email: manuel_ramones4life@gmx.at 


Intro: 1x
e|---------------------------------------------------------------------------|
B|---------------------------------------------------------------------------|
G|--------7-8-7-------8-1010101010--------7-8-7------------------------------|
D|--55555-7-8-7-88888-8-1010101010--55555-7-8-7-88888-33-8-7-----------------|
A|--55555-5-6-5-88888-6--8-8-8-8-8--55555-5-6-5-88888-33-8-7-----------------|
E|--33333-------66666---------------33333-------66666-11-6-5-----------------|
                                                 xxxx                        

e|---------------------------------------------------------------------------|
B|---------------------------------------------------------------------------|
G|--------7-8-7-------8-1010101010-------------------------------------------|
D|--55555-7-8-7-88888-8-1010101010--55555-8-10-8-5555555555------------------|
A|--55555-5-6-5-88888-6--8-8-8-8-8--55555-8-10-8-5555555555------------------|
E|--33333-------66666---------------33333-6--8-6-3333333333------------------|
                                                  xxxxxxxxx

Verse: 2x
e|---------------------------------------------------------------------------|
B|---------------------------------------------------------------------------|
G|--------7-8-7-------8-1010101010--------7-8-7------------------------------|
D|--55555-7-8-7-88888-8-1010101010--55555-7-8-7-88888-33-8-7-----------------|
A|--55555-5-6-5-88888-6--8-8-8-8-8--55555-5-6-5-88888-33-8-7-----------------|
E|--33333-------66666---------------33333-------66666-11-6-5-----------------|
                                                 xxxx                        
[ Tab from: http://www.guitartabs.cc/tabs/p/pennywise/fight_till_you_die_tab.html ]
e|---------------------------------------------------------------------------|
B|---------------------------------------------------------------------------|
G|--------7-8-7-------8-1010101010-------------------------------------------|
D|--55555-7-8-7-88888-8-1010101010--55555-8-10-8-5555555555------------------|
A|--55555-5-6-5-88888-6--8-8-8-8-8--55555-8-10-8-5555555555------------------|
E|--33333-------66666---------------33333-6--8-6-3333333333------------------|
                                                  xxxxxxxxx
Pre-Chorus: 1x
e|---------------------------------------------------------------------------|
B|---------------------------------------------------------------------------|
G|--8888888888-5555555555----------------------------------------------------|
D|--8888888888-5555555555--5555-8-5555-8-5555-8-5555-------------------------|
A|--6666666666-3333333333--5555-8-5555-8-5555-8-5555-------------------------|
E|-------------------------3333-6-3333-6-3333-6-3333-------------------------|
         xxxxx      xxxxx  
e|---------------------------------------------------------------------------|
B|---------------------------------------------------------------------------|
G|--8888888888-5555555555----------------------------------------------------|
D|--8888888888-5555555555--5555-8-5555-8-5555-8-5555-------------------------|
A|--6666666666-3333333333--5555-8-5555-8-5555-8-5555-------------------------|
E|-------------------------3333-6-3333-6-3333-6-3333-------------------------|
         xxxxx      xxxxx

e|---------------------------------------------------------------------------|
B|---------------------------------------------------------------------------|
G|--8888888888-5555----------------------------------------------------------|
D|--8888888888-5555----------------------------------------------------------|
A|--6666666666-3333----------------------------------------------------------|
E|---------------------------------------------------------------------------|
         xxxxx     

Chorus: 1x
e|---------------------------------------------------------------------------|
B|---------------------------------------------------------------------------|
G|-1010101010-12121212121212121212-1010101010-12121212121212121212-----------|
D|-1010101010-12121212121212121212-1010101010-12121212121212121212-----------|
A|--8-8-8-8-8-10101010101010101010--8-8-8-8-8-10101010101010101010-----------|
E|---------------------------------------------------------------------------|

Verse: 2x

Pre-Chorus: 1x

Chorus: 1x

Bridge: 1x
e|---------------------------------------------------------------------------|
B|---------------------------------------------------------------------------|
G|-88888888-1010101010101010-1212121212121212--------------------------------|
D|-88888888-1010101010101010-1212121212121212--------------------------------|
A|-66666666--8-8-8-8-8-8-8-8-1010101010101010--------------------------------|
E|---------------------------------------------------------------------------|

e|---------------------------------------------------------------------------|
B|---------------------------------------------------------------------------|
G|-88888888-1010101010101010-1212121212121212--------------------------------|
D|-88888888-1010101010101010-1212121212121212--------------------------------|
A|-66666666--8-8-8-8-8-8-8-8-1010101010101010--------------------------------|
E|---------------------------------------------------------------------------|

e|---------------------------------------------------------------------------|
B|---------------------------------------------------------------------------|
G|-8888-10-8888-5555-10101010-1212121212121212-------------------------------|
D|-8888-10-8888-5555-10101010-1212121212121212-------------------------------|
A|-6666--8-6666-3333--8-8-8-8-1010101010101010-------------------------------|
E|---------------------------------------------------------------------------|

e|---------------------------------------------------------------------------|
B|---------------------------------------------------------------------------|
G|-8888-10-8888-5555-88-1010-1212121212121212--------------------------------|
D|-8888-10-8888-5555-88-1010-1212121212121212--------------------------------|
A|-6666--8-6666-3333-66--8-8-1010101010101010--------------------------------|
E|---------------------------------------------------------------------------|

Verse: 1x

Pre-Chorus: 1x

Chorus: 4x

Thatīs It! Itīs a very easy song but it has a lot of energy!!!

| /  slide up
| \  slide down
| h  hammer-on
| p  pull-off
| ~  vibrato
| +  harmonic
| x  Mute note
===============================================================================
Comments