Pennywise - Fight Till You Die Chords & Tabs

 

Fight Till You Die Chords & Tabs

Pennywise Chords & Tabs

Version: 1 Type: Bass Tab 0 ratings
1 star 2 stars 3 stars 4 stars 5 stars
comments

Fight Till You Die Bass Tab

Song:FIGHT TILL YOU DIE
Band:PENNYWISE
Album:FULL CIRCLE
tabbed by:MOKE

G:-----------------------------------------------------------
D:-----------------------------------------------------------
A:-5-5-5--6-6--5-5--1-1--8-8----5-5-5--6--1-1-------------
E:-3-3------------------------3-3---------------1-1-8--6-3-

G:--------------------------------------------------
D:--------------------------------------------------
A:-----7--6-6--5-5--1-1--8--8--5-5----------------
E:-3-3-------------------------------3-3-6-8--6-3--
[ Tab from: http://www.guitartabs.cc/tabs/p/pennywise/fight_till_you_die_btab.html ]
Chorus
G:----------------------------------------------------------
D:----------------------------------------------------------
A:-6-6-6-6--8--8--8--8------------------------------------
E:------------------------3--6-6--3--6-6--3--6-6--8--6-3--

Bridge
G:-------------------------------------------------------------------------
D:-------------------------------------------------------------------------
A:-6-6-6-6-6--3-3-3-3-3--10-10---8--8--10-10---8-8---10-10--8--8---10-
E:-------------------------------------------------------------------------
Comments