Pennywise - Falling Down Chords & Tabs

 

Falling Down Chords & Tabs

Pennywise Chords & Tabs

Version: 1 Type: Tab 0 ratings
1 star 2 stars 3 stars 4 stars 5 stars
comments

Falling Down Tab

e|--------------------------------------------------|
B|--------------------------------------------------|
G|--------------------------------------------------|
D|-10-10-10-10-------13-13-11-11-11-11-------15-15--|REPEAT
A|-------------11-11-------------------13-13--------|
E|--------------------------------------------------|
[ Tab from: http://www.guitartabs.cc/tabs/p/pennywise/falling_down_tab.html ]
OTHER GUITAR STRIKES THIS;
e|--------------------------------|
B|--------------------------------|
G|--------------------------------|
D|-1010---1111---1010---1111-88---|
A|-1010---1111---1010---1111-88---|
E|-8-8----9-9----8-8----9-9--66---|

this is just the intro. thats all i figured out. it sounds correct to me.
i hope it's gonna help someone tab the rest of it. PEACE
Comments