Pennywise - Every Single Day Chords & Tabs

 

Every Single Day Chords & Tabs

Pennywise Chords & Tabs

Version: 2 Type: Bass Tab 0 ratings
1 star 2 stars 3 stars 4 stars 5 stars
comments

Every Single Day Bass Tab

-------------------------------------------
every single day / pennywise
-------------------------------------------

tabbed by carlos pino 

    intro & chorus                                      x2

G]---------------------------------------------------------------------------

D]---------------------------------------------------------------------------
A]-------------7-7--------------------7-9-7----------------7-7----------
E]-9-9--5-5-------7-7--9-9--5-5---------7-9-9--5-5--------7-7----

     verse                      

G]---------------------------------------------------------------------------

D]---------------------------------------------------------------------------
A]-------------7-7--------------------7-9-7----------------7-7----------
[ Tab from: http://www.guitartabs.cc/tabs/p/pennywise/every_single_day_btab_ver_2.html ]
E]-9-9--5-5-------7-7--9-9--5-5---------7-9-9--5-5-------7-7--5-5-5-5--4-4-4-4

    pre chorus ( i can start over today...)

G]---------------------------------------------------------------------------

D]---------------------------------------------------------------------------

A]---------------------------------------------------------------------------
E]-9-9-9-9--5-5-5-5--7-7-7--2-2-2-2--9-9-9-9--5-5-5-5--7-7-7-7--2-2-2-2
 
   interlude (at the end with each dropping sun..)

G]---------------------------------------------------------------------------

D]---------------------------------------------------------------------------

A]----7----------7----------------------------------------------------------
E]-9----5-7-9-----5-7-7-7-7--------------------------------------------




Comments