Pennywise - Enemy Chords & Tabs

 

Enemy Chords & Tabs

Pennywise Chords & Tabs

Version: 1 Type: Tab 0 ratings
1 star 2 stars 3 stars 4 stars 5 stars
comments

Enemy Tab

Here is an awesome song from Pennywise, our Punk heros!!!
Enjoy!

. = palm mute note

Intro

E-----------------------------------------
B-----------------------------------------
G--9-9-9--9-----------------------12-11--- Repeat 2x
D--9-9-9--9-5-5-5--5-9-9-9----9-7-12-11---
A--7-7-7--7-5-5-5--5-9-9-9----9-7-10-9----
E-----------3-3-3--3-7-7-7----7-5---------

E-----------------------------------------
B-----------------------------------------
G--9-9-9-9-------------------------12-11--- Repeat 2x
D--9-9-9-9--5-5-5-5--9-9-9-9---9-7-12-11---
A--7-7-7-7--5-5-5-5--9-9-9-9---9-7-10-9----
E-----------3-3-3-3--7-7-7-7---7-5---------
   . . .    . . .    . . .

Verse

E-----------------------------------------------------------------
B-----------------------------------------------------------------
G--9-9-9-9-9-9-9-9----------------------------------------12-11--- 
D--9-9-9-9-9-9-9-9--5-5-5-5-5-5-5-5--9-9-9-9-9-9-9-9--9-7-12-11---
A--7-7-7-7-7-7-7-7--5-5-5-5-5-5-5-5--9-9-9-9-9-9-9-9--9-7-10-9----
E-------------------3-3-3-3-3-3-3-3--7-7-7-7-7-7-7-7--7-5---------

E---------------------------------------------------------------------
B---------------------------------------------------------------------
G--9-9-9-9-9-9-9-9-------------------7-7-7-7-7-7-7-7------------------ 
D--9-9-9-9-9-9-9-9--5-5-5-5-5-5-5-5--7-7-7-7-7-7-7-7--9-9-9-9-9-9-9-9-
A--7-7-7-7-7-7-7-7--5-5-5-5-5-5-5-5--5-5-5-5-5-5-5-5--9-9-9-9-9-9-9-9-
E-------------------3-3-3-3-3-3-3-3-------------------7-7-7-7-7-7-7-7-

E-----------------------------------------------------------------
B-----------------------------------------------------------------
G--9-9-9-9-9-9-9-9----------------------------------------12-11--- 
D--9-9-9-9-9-9-9-9--5-5-5-5-5-5-5-5--9-9-9-9-9-9-9-9--9-7-12-11---
A--7-7-7-7-7-7-7-7--5-5-5-5-5-5-5-5--9-9-9-9-9-9-9-9--9-7-10-9----
E-------------------3-3-3-3-3-3-3-3--7-7-7-7-7-7-7-7--7-5---------

E---------------------------------------------------------------------
B---------------------------------------------------------------------
G--9-9-9-9-9-9-9-9-------------------7-7-7-7-7-7-7-7------------------ 
D--9-9-9-9-9-9-9-9--5-5-5-5-5-5-5-5--7-7-7-7-7-7-7-7--9-9-9-9-9-9-9-9-
A--7-7-7-7-7-7-7-7--5-5-5-5-5-5-5-5--5-5-5-5-5-5-5-5--9-9-9-9-9-9-9-9-
E-------------------3-3-3-3-3-3-3-3-------------------7-7-7-7-7-7-7-7-


Pre-Chorus

E-----------------------------------------------
B-----------------------------------------------
G-----------------------------------------------
D--7-7----------7-9-9---------9-----------------
A--7-7-(16x pm)-7-9-9-(16x pm)9--(pick slide)---
E--5-5----------5-7-7---------7-----------------
     .              .

Chorus 

E-----------------------------------------------------------------
B-----------------------------------------------------------------
G--9-9-9-9-9-9-9-9----------------------------------------12-11--- Repeat 2x
D--9-9-9-9-9-9-9-9--5-5-5-5-5-5-5-5--9-9-9-9-9-9-9-9--9-7-12-11---
A--7-7-7-7-7-7-7-7--5-5-5-5-5-5-5-5--9-9-9-9-9-9-9-9--9-7-10-9----
E-------------------3-3-3-3-3-3-3-3--7-7-7-7-7-7-7-7--7-5---------

E-----------------------------------------
B-----------------------------------------
G--9-9-9-9-------------------------12-11--- Repeat 2x
D--9-9-9-9--5-5-5-5--9-9-9-9---9-7-12-11---
A--7-7-7-7--5-5-5-5--9-9-9-9---9-7-10-9----
E-----------3-3-3-3--7-7-7-7---7-5---------
   . . .    . . .    . . .

Verse 2

E-----------------------------------------------------------------
B-----------------------------------------------------------------
G--9-9-9-9-9-9-9-9----------------------------------------12-11--- 
D--9-9-9-9-9-9-9-9--5-5-5-5-5-5-5-5--9-9-9-9-9-9-9-9--9-7-12-11---
A--7-7-7-7-7-7-7-7--5-5-5-5-5-5-5-5--9-9-9-9-9-9-9-9--9-7-10-9----
E-------------------3-3-3-3-3-3-3-3--7-7-7-7-7-7-7-7--7-5---------

E----------------------------------------------------------------------------------
B----------------------------------------------------------------------------------
G--9-9-9-9-9-9-9-9-------------------7-7-7-7-7-7-7-7------------------ ------------
D--9-9-9-9-9-9-9-9--5-5-5-5-5-5-5-5--7-7-7-7-7-7-7-7--9-9-9-9-9-9-9-9--------------
A--7-7-7-7-7-7-7-7--5-5-5-5-5-5-5-5--5-5-5-5-5-5-5-5--9-9-9-9-9-9-9-9-(pick slide)-
E-------------------3-3-3-3-3-3-3-3-------------------7-7-7-7-7-7-7-7--------------

E-----------------------------------------------------------------
B-----------------------------------------------------------------
G--9-9-9-9-9-9-9-9----------------------------------------12-11--- 
D--9-9-9-9-9-9-9-9--5-5-5-5-5-5-5-5--9-9-9-9-9-9-9-9--9-7-12-11---
A--7-7-7-7-7-7-7-7--5-5-5-5-5-5-5-5--9-9-9-9-9-9-9-9--9-7-10-9----
E-------------------3-3-3-3-3-3-3-3--7-7-7-7-7-7-7-7--7-5---------
[ Tab from: http://www.guitartabs.cc/tabs/p/pennywise/enemy_tab.html ]
E---------------------------------------------------------------------
B---------------------------------------------------------------------
G--9-9-9-9-9-9-9-9-------------------7-7-7-7-7-7-7-7------------------ 
D--9-9-9-9-9-9-9-9--5-5-5-5-5-5-5-5--7-7-7-7-7-7-7-7--9-9-9-9-9-9-9-9-
A--7-7-7-7-7-7-7-7--5-5-5-5-5-5-5-5--5-5-5-5-5-5-5-5--9-9-9-9-9-9-9-9-
E-------------------3-3-3-3-3-3-3-3-------------------7-7-7-7-7-7-7-7-

E-----------------------------------------------------------------
B-----------------------------------------------------------------
G--9-9-9-9-9-9-9-9----------------------------------------12-11--- 
D--9-9-9-9-9-9-9-9--5-5-5-5-5-5-5-5--9-9-9-9-9-9-9-9--9-7-12-11---
A--7-7-7-7-7-7-7-7--5-5-5-5-5-5-5-5--9-9-9-9-9-9-9-9--9-7-10-9----
E-------------------3-3-3-3-3-3-3-3--7-7-7-7-7-7-7-7--7-5---------

E---------------------------------------------------------------------
B---------------------------------------------------------------------
G--9-9-9-9-9-9-9-9-------------------7-7-7-7-7-7-7-7------------------ 
D--9-9-9-9-9-9-9-9--5-5-5-5-5-5-5-5--7-7-7-7-7-7-7-7--9-9-9-9-9-9-9-9-
A--7-7-7-7-7-7-7-7--5-5-5-5-5-5-5-5--5-5-5-5-5-5-5-5--9-9-9-9-9-9-9-9-
E-------------------3-3-3-3-3-3-3-3-------------------7-7-7-7-7-7-7-7-

Pre-Chorus

E-----------------------------------------------
B-----------------------------------------------
G-----------------------------------------------
D--7-7----------7-9-9---------9-----------------
A--7-7-(16x pm)-7-9-9-(16x pm)9--(pick slide)---
E--5-5----------5-7-7---------7-----------------
     .              .

Chorus 

E-----------------------------------------------------------------
B-----------------------------------------------------------------
G--9-9-9-9-9-9-9-9----------------------------------------12-11--- Repeat 2x
D--9-9-9-9-9-9-9-9--5-5-5-5-5-5-5-5--9-9-9-9-9-9-9-9--9-7-12-11---
A--7-7-7-7-7-7-7-7--5-5-5-5-5-5-5-5--9-9-9-9-9-9-9-9--9-7-10-9----
E-------------------3-3-3-3-3-3-3-3--7-7-7-7-7-7-7-7--7-5---------

E-----------------------------------------
B-----------------------------------------
G--9-9-9-9-------------------------12-11--- Repeat 2x
D--9-9-9-9--5-5-5-5--9-9-9-9---9-7-12-11---
A--7-7-7-7--5-5-5-5--9-9-9-9---9-7-10-9----
E-----------3-3-3-3--7-7-7-7---7-5---------
   . . .    . . .    . . .

Interlude

E-----------------------------------------------------------------
B-----------------------------------------------------------------
G--9-9-9-9-9-9-9-9----------------------------------------12-11--- 
D--9-9-9-9-9-9-9-9--5-5-5-5-5-5-5-5--9-9-9-9-9-9-9-9--9-7-12-11---
A--7-7-7-7-7-7-7-7--5-5-5-5-5-5-5-5--9-9-9-9-9-9-9-9--9-7-10-9----
E-------------------3-3-3-3-3-3-3-3--7-7-7-7-7-7-7-7--7-5---------

E---------------------------------------------------------------------
B---------------------------------------------------------------------
G--9-9-9-9-9-9-9-9-------------------7-7-7-7-7-7-7-7------------------ 
D--9-9-9-9-9-9-9-9--5-5-5-5-5-5-5-5--7-7-7-7-7-7-7-7--9-9-9-9-9-9-9-9-
A--7-7-7-7-7-7-7-7--5-5-5-5-5-5-5-5--5-5-5-5-5-5-5-5--9-9-9-9-9-9-9-9-
E-------------------3-3-3-3-3-3-3-3-------------------7-7-7-7-7-7-7-9-

Solo (while guitar 2 continues playing the interlude)

E--------------------------------------------------------------|
B--------------------------------------------------------------|
G----------------------12-11-9-9-9-9-9-7-7-7-7-7----7----------|
D-2-4-5-7-5-4-9~---9-7--------------------------------10-9-13--|
A--------------------------------------------------------------|
E--------------------------------------------------------------|

Pre-Chorus

E---------------------------------------------------------------
B---------------------------------------------------------------
G--------------------------------------------------------12-11--
D--7-7-----------9-9---------9-9--------9-9----------9-7-12-11--
A--7-7-(16x pm)--9-9-(8x pm)-9-9-(8x pm)9-9-(8x pm)--9-7-10-9---
E--5-5-----------7-7---------7-7--------7-7----------7-5--------
     .             .           .          .

Chorus

E-----------------------------------------
B-----------------------------------------
G--9-9-9-9-------------------------12-11--- Repeat 3x
D--9-9-9-9--5-5-5-5--9-9-9-9---9-7-12-11---
A--7-7-7-7--5-5-5-5--9-9-9-9---9-7-10-9----
E-----------3-3-3-3--7-7-7-7---7-5---------
   . . .    . . .    . . .

Ending

E------------------------------------------------------------------|
B------------------------------------------------------------------|
G--9-9-9-9-9-9-9-9----------------------------------------12-11-9--|
D--9-9-9-9-9-9-9-9--5-5-5-5-5-5-5-5--9-9-9-9-9-9-9-9--9-7-12-11-9--|
A--7-7-7-7-7-7-7-7--5-5-5-5-5-5-5-5--9-9-9-9-9-9-9-9--9-7-10-9--7--|
E-------------------3-3-3-3-3-3-3-3--7-7-7-7-7-7-7-7--7-5----------|

That's it faulks!!! Great song isn't it?!

If you have any difficulties or comments with the tab,
e-mail me at julesveine@hotmail.com

Comments