Pennywise - Enemy Chords & Tabs

 

Enemy Chords & Tabs

Pennywise Chords & Tabs

Version: 1 Type: Bass Tab 0 ratings
1 star 2 stars 3 stars 4 stars 5 stars
comments

Enemy Bass Tab

Intro 2x
G----------------------------------------------------------------------------
D----------------------------------------------------------------------------
A--2--0--10--9--7------------------------------------------------------------
E----------------------------------------------------------------------------

Pre Verse 2x
G----------------------------------------------------------------------------
D----------------------------------------------------------------------------
A--7-7-7-7-7----------2-2-2-2-2----2--0--10--9--7----------------------------
E-----------3-3-3-3-3--------------------------------------------------------

Verse 2x
G----------------------------------------------------------------------------
D----------------------------------------------------------------------------
A--7-7-7-7-7-7-7-7-----------------2-2-2-2-2-2-2-2----2--0--10--9--7---------
E------------------3-3-3-3-3-3-3-3-------------------------------------------

G----------------------------------------------------------------------------
D----------------------------------------------------------------------------
A--7-7-7-7-7-7-7-7-----------------5-5-5-5-5-5-5-5----2-2-2-2-2-2-2-2--------
E------------------3-3-3-3-3-3-3-3-------------------------------------------

Pre Chorus
G----------------------------------------------------------------------------
D----------------------------------------------------------------------------
A--0-0-0-0-0-0-0-0-0-0-0-0-0-0-----------------------------------------------
E-------------------------------2-2-2-2-2-2-2--------------------------------

Chorus 2x
G----------------------------------------------------------------------------
D----------------------------------------------------------------------------
A--7-7-7-7-7-7-7-7-----------------2-2-2-2-2-2-2-2----2--0--10--9--7---------
E------------------3-3-3-3-3-3-3-3-------------------------------------------

Pre Verse 2x
G----------------------------------------------------------------------------
D----------------------------------------------------------------------------
A--7-7-7-7-7-----------2-2-2-2-2----2--0--10--9--7---------------------------
E------------3-3-3-3-3-------------------------------------------------------

Chorus 2x
G----------------------------------------------------------------------------
D----------------------------------------------------------------------------
A--7-7-7-7-7-7-7-7-----------------2-2-2-2-2-2-2-2----2--0--10--9--7---------
E------------------3-3-3-3-3-3-3-3-------------------------------------------

Verse 2x
G----------------------------------------------------------------------------
D----------------------------------------------------------------------------
A--7-7-7-7-7-7-7-7-----------------2-2-2-2-2-2-2-2----2--0--10--9--7---------
E------------------3-3-3-3-3-3-3-3-------------------------------------------
[ Tab from: http://www.guitartabs.cc/tabs/p/pennywise/enemy_btab.html ]
G----------------------------------------------------------------------------
D----------------------------------------------------------------------------
A--7-7-7-7-7-7-7-7-----------------5-5-5-5-5-5-5-5----2-2-2-2-2-2-2-2--------
E------------------3-3-3-3-3-3-3-3-------------------------------------------

Pre Chorus
G----------------------------------------------------------------------------
D----------------------------------------------------------------------------
A--0-0-0-0-0-0-0-0-0-0-0-0-0-0-----------------------------------------------
E------------------------------2-2-2-2-2-2-2---------------------------------

Chorus 2x
G----------------------------------------------------------------------------
D----------------------------------------------------------------------------
A--7-7-7-7-7-7-7-7-----------------2-2-2-2-2-2-2-2----2--0--10--9--7---------
E------------------3-3-3-3-3-3-3-3-------------------------------------------

Pre Verse 2x
G----------------------------------------------------------------------------
D----------------------------------------------------------------------------
A--7-7-7-7-7-----------2-2-2-2-2----2--0--10--9--7---------------------------
E------------3-3-3-3-3-------------------------------------------------------

Verse 2x
G----------------------------------------------------------------------------
D----------------------------------------------------------------------------
A--7-7-7-7-7-7-7-7-----------------2-2-2-2-2-2-2-2----2--0--10--9--7---------
E------------------3-3-3-3-3-3-3-3-------------------------------------------

G----------------------------------------------------------------------------
D----------------------------------------------------------------------------
A--7-7-7-7-7-7-7-7-----------------5-5-5-5-5-5-5-5----2-2-2-2-2-2-2-2--------
E------------------3-3-3-3-3-3-3-3-------------------------------------------

Pre Chorus
G----------------------------------------------------------------------------
D----------------------------------------------------------------------------
A--0-0-0-0-0-0-0-0-0-0-0-0-0-0-----------------------------2--0--10--9--7----
E------------------------------2-2-2-2-2-2-2-2-2-2-2-2-2-2-------------------

Pre Verse 3x
G----------------------------------------------------------------------------
D----------------------------------------------------------------------------
A--7-7-7-7-7-----------2-2-2-2-2----2--0--10--9--7---------------------------
E------------3-3-3-3-3-------------------------------------------------------

Ĺ Verse 1x
G----------------------------------------------------------------------------
D----------------------------------------------------------------------------
A--7-7-7-7-7-7-7-7-----------------2-2-2-2-2-2-2-2----2--0--10--9--7---------
E------------------3-3-3-3-3-3-3-3-------------------------------------------

And thatís it! Just play it as itís written, itís all in order. Itís an easy
song, have fun! Comments to Fritobandito329@aol.com
Comments