Pennywise - Dying To Know Chords & Tabs

 

Dying To Know Chords & Tabs

Pennywise Chords & Tabs

Version: 3 Type: Bass Tab 0 ratings
1 star 2 stars 3 stars 4 stars 5 stars
comments

Dying To Know Bass Tab

   
-------------------------------------------------------------------------------
                             DYING TO KNOW - PENNYWISE
-------------------------------------------------------------------------------
Tabbed by: David J.D Persson
E-mail: Daddeadline@gmail.com

Tuning: Standard Bass Tuning (Low to top string: G-D-A-E)

INTRO:
G|---------------------------------------------------------------------------|
D|---------------------------------------------------------------------------|
A|---5-5-5--8--5--3-3-3----------------------3333----------------------------|
E|----------------------5-4-3-3-3--5--3--1-1---------------------------------|  x2 

VERSE:
G|---------------------------------------------------------------------------|
D|---------------------------------------------------------------------------|
A|---5-5-5--8--5--3-3-3------------------------3333--------------------------|
E|-----------------------5-4-3-3-3--5--3--1-1--------------------------------|  x4
[ Tab from: http://www.guitartabs.cc/tabs/p/pennywise/dying_to_know_btab_ver_3.html ]
CHORUS:
G|---------------------------------------------------------------------------|
D|---------------------------------------------------------------------------|
A|---5-5-5-5--3-3-3-3-----------8-8------------------------------------------|
E|---------------------3-3-3-3-----------------------------------------------|  x4

(Could be considered the bridge or just another part of the chorus:)
G|---------------------------------------------------------------------------|
D|---------------------------------------------------------------------------|
A|---5-5-5-5--8-8-8-8--3-3-3-3--5-5-5-5--8-8-8-8--10-10-10-10----------------|
E|---------------------------------------------------------------------------|  x2

G|---------------------------------------------------------------------------|
D|---------------------------------------------------------------------------|
A|---------------------------------------------------------------------------|
E|---1-1-1-1--3-3-3-3--------------------------------------------------------|

(Repeat throughout the song)


| /  slide up
| \  slide down
| h  hammer-on
| p  pull-off
| ~  vibrato
| +  harmonic
| x  Mute note
===============================================================================
Comments