Pennywise - Dying To Know Chords & Tabs

 

Dying To Know Chords & Tabs

Pennywise Chords & Tabs

Version: 2 Type: Bass Tab 0 ratings
1 star 2 stars 3 stars 4 stars 5 stars
comments

Dying To Know Bass Tab

PENNYWISE
DYING TO KNOW

verse:

E:------------------------------------------------------
D:------------------------------------------------------
A:-5-5-5--8-3-3-3-3-------------------------8--8--8--8--
E:-------------------5-5-4-3-3-3-5-1-1-1-1--------------

chorus:
[ Tab from: http://www.guitartabs.cc/tabs/p/pennywise/dying_to_know_btab_ver_2.html ]
G:----------------------------------------
D:----------------------------------------
A:--5-5-5-5-3-3-3-3-----------8--8--8--8--
E:------------------3-3-3-3---------------


bridge:


G:------------------------------
D:------------------------------
A:--5-5-5-5-5-5-5-7-7-7-7-7-7-7-
E:------------------------------


outro:


G:--------------------------------------------------
D:--------------------------------------------------
A:--5-5-5-5-5-5-3-3-3-3-3-3-------------------------
E:--------------------------3-3-3-3-3-3-1-1-1-1-1-1-
Comments