Pennywise - Brown Eyed Girl Chords & Tabs

 

Brown Eyed Girl Chords & Tabs

Pennywise Chords & Tabs

Version: 1 Type: Tab 0 ratings
1 star 2 stars 3 stars 4 stars 5 stars
comments

Brown Eyed Girl Tab

Brown Eyed Girl - Pennywise

This is my first tab so I hope that its ok, email me 
at mechboo2000@hotmail.com


Intro
e|--------------8-10-12-10-8------------------------|
B|-8-10-12-10-8--------------8-10-12-10-8-----------|
G|-----------------------------------------11-12-14-|
D|--------------------------------------------------| Play X2
A|--------------------------------------------------|
E|--------------------------------------------------|

Verse (Play Each Chord X8)
e|---------------|
B|---------------|
G|---------------|
D|----5-----7----|  Play X4
A|-5--3--5--5----|
E|-3-----3-------|

Chorus (The part that goes 5-7-5-4-2 on the D string can be
played as power chords or just the single notes, I prefer 
the power chords because it makes a little fatter sound)
e|---------------------------------------------------------|
B|---------------------------------------------------------|
G|---------------------7--9--7--6--4-----------------------|
D|-55555555--77777777--5--7--5--4--2--4--55555555-77777777-|
A|-33333333--55555555-----------------2--33333333-55555555-|
E|---------------------------------------------------------|
[ Tab from: http://www.guitartabs.cc/tabs/p/pennywise/brown_eyed_girl_tab.html ]
e|---------------------------------------------------------|
B|---------------------------------------------------------|
G|---------------------------------------------------------|
D|-----------77777-----------------------------------------|
A|-55555555--55555-----------------------------------------|
E|-33333333------------------------------------------------|



Verse


Chorus (At the end of the chorus this time play the last 
chord for I think 2 bars then play the verse riff X2 and 
let the last chord ring)


I think there's a bass solo in there it might be guitar but
Im not sure.  So I didn't tab it.


Verse


Chorus (Play it like you did the second time but play the 
verse riff X4)


Outro [Add in the D Power Chord (5th fret A string) only 
after you play the first part X3]
e|--------------------------|
B|--------------------------|
G|-77777--666---------------|   I think they play it around 
D|-55555--444--77777777-----|   X6 but it doesn't really 
A|-------------55555555-----|   matter.
E|--------------------------|




Whole Outline

Intro
Verse
Chorus
Verse
Chorus v.2
Verse
Chorus v.2
Outro

The rhythm is pretty simple to get after you hear the song so just practice it
for a bit and you'll get it.
Comments