Pennywise - Bro Hymn Chords & Tabs

 

Bro Hymn Chords & Tabs

Pennywise Chords & Tabs

Version: 8 Type: Tab 0 ratings
1 star 2 stars 3 stars 4 stars 5 stars
comments

Bro Hymn Tab

Pennywise, Bro Hymn Tribute.
Tabbed by Jusca2@aol.com.
  
Bro Hymn by pennywise



e-|-----------------------------------------|
B-|-----------------------------------------|
G-|-7--10---9---5----10---5---10---9---7----|
D-|-7--10---9---5----10---5---10---9---7----|
A-|-5---8---7---3-----8---3----8---7---5----|
E-|-----------------------------------------|

thats how I play it... 

[ Tab from: http://www.guitartabs.cc/tabs/p/pennywise/bro_hymn_tab_ver_8.html ]
Song: Bro Hym
Band: Pennywise
Album: Pennywise

This song is SIMPLE!!

e|--------------------------------------------------|
B|--------------------------------------------------|
G|---------9----8---------9---------9----8----------|
D|---10----9----8----9----9----9----9----8----10----|
A|---10----7----6----9----7----9----7----6----10----|
E|---8---------------7---------7--------------8-----|

 
:: Ultimate Guitar Archive :: 
http://www.ultimate-guitar.com 



Comments