Pennywise - Bro Hymn Chords & Tabs

 

Bro Hymn Chords & Tabs

Pennywise Chords & Tabs

Version: 2 Type: Bass Tab 1 rating
1 star 2 stars 3 stars 4 stars 5 stars
comments

Bro Hymn Bass Tab

------------------------------------------------------------------
			 BRO HYMN - Pennywise
------------------------------------------------------------------

By: Dave Wilson (nougeypooge@hotmail.com for requests)
There are quite a few bass runs in this song so here they are

Main Riff
G|---------------------------------------------------------------|
D|---------------------------------------------------------------|
A|-5-5-5-5-5-5-5-5-5-5-5-5--8-7--3-3-3-3-3-3-3-3-3-3-3-3-3-3-3-3-|
E|---------------------------------------------------------------|

G|---------------------------------------------------------------|
D|---------------------------------------------------------------|
A|-8-8-8-8-8-8-8-8--3-3-3-3--8-7--5-5-5-5-5-5-5-5-5-5-5-5-5-5-5-5|
E|---------------------------------------------------------------|
[ Tab from: http://www.guitartabs.cc/tabs/p/pennywise/bro_hymn_btab_ver_2.html ]
Variations (These start at the first chorus)
G|------------------------------------------------7-5------------|
D|----------------------------------------------------7-3-5-3----|
A|-8-8-8-8-8-8-8-8--3-3-3-3--8-7--5-5-5-5-5-5-5-5-------------5-3|
E|---------------------------------------------------------------|

G|---------------------------------------------------------------|
D|------------------------------------------------7-6-5-3-5-3----|
A|-8-8-8-8-8-8-8-8--3-3-3-3--8-7--5-5-5-5-5-5-5-5-------------5-3|
E|---------------------------------------------------------------|

G|---------------------------------------------------------------|
D|---------------------------------------------------3----5-3----|
A|8-8-8-8-8-8-8-8--3-3-3-3--8-7--5-5-5-5-5-5-5-5-------5-3----5-3|
E|-----------------------------------------------3-5-------------|

G|------------------------------------------------5-3------------|
D|----------------------------------------------------5-3-----
---|
A|-8-8-8-8-8-8-8-8--3-3-3-3--8-7--5-5-5-5-5-5-5-5---------5-3----|
E|------------------------------------------------------------5-3|

G|---------------------------------------------------------------|
D|------------------------------------------------5-3------------|
A|-8-8-8-8-8-8-8-8--3-3-3-3--8-7--5-5-5-5-5-5-5-5-----5-3-5-3----|
E|------------------------------------------------------------5-3|

Comments