Pennywise - Badge Of Pride Chords & Tabs

 

Badge Of Pride Chords & Tabs

Pennywise Chords & Tabs

Version: 2 Type: Tab 0 ratings
1 star 2 stars 3 stars 4 stars 5 stars
comments

Badge Of Pride Tab

   
pennywise
badge of pride
straight ahead
----------------------------------------------------------------------------
tabber: Wobbler
standart tuning
----------------------------------------------------------------------------
there are some delay parts i left out because i haven't delay

intro
e|--------------------------------------------------|
B|--------------------------------------------------|
G|-77777777/999/1010\99/1212121212121212/14141414---|
D|-xxxxxxxx-xxx--x-x-xx--x-x-x-x-x-x-x-x--x-x-x-x---|
A|-55555555/777/-8-8\77/1010101010101010/12121212\--|
E|--------------------------------------------------|

pre-verse
e|-----------------------------------------------------------------------|
B|-----------------------------------------------------------------------|
G|--5h7777777---------5h77777-99/1010\9-5h7777777---------5h77777-9-10-9-|
D|--0-0000000-7777777-0-00000-00--0-0-0-0-0000000-7777777-0-00000--------|
A|------------0000000-----------------------------0000000----------------|
E|-----------------------------------------------------------------------|

e|------------------------------------------------------------------------|
B|------------------------------------------------------------------------|
G|--5h7777777---------5h77777-99/1010\9-5h7777777---------5h77777-10-9-10-|
D|--0-0000000-7777777-0-00000-00--0-0-0-0-0000000-7777777-0-00000-10-9-10-|
A|------------0000000-----------------------------0000000----------8-7--8-|
E|------------------------------------------------------------------------|

verse \"all the bullshit that i see..."\
e|-------------------------------------------------------------------|
B|-------------------------------------------------------------------|
G|-7777-7-----5555--------10-X-9-X-10-7777-7-----5555--------10-9-10-|
D|-7777-7-777-5555-5555-5-10-X-9-X-10-7777-7-777-5555-5555-5-10-9-10-|
A|-5555-5-777-3333-5555-5--8-X-7-X--8-5555-5-777-3333-5555-5--8-7--8-|
E|--------555------3333-3--------------------555------3333-3---------|
pm ....   ... .... ....   .. . . . .. ....   ... .... ....

verse \"i may not ever get rich..."\
e|-------------------------------------------------------------------------|
B|-------------------------------------------------------------------------|
G|-7777-7-----5555--------10-X-9-X-10-7-777-7-----5555-------10101010101010|
D|-7777-7-777-5555-5555-5-10-X-9-X-10-7-777-7-777-5555-55555-10101010101010|
A|-5555-5-777-3333-5555-5--8-X-7-X--8-5-555-5-777-3333-55555--8-8-8-8-8-8-8|
E|--------555------3333-3---------------------555------33333---------------|
pm ....   ... .... ....   .. . . . ..   ...   ... .... 

chorus \"it is my badge of pride..."\
e|-----------------------------------------------------------------------|
B|-----------------------------------------------------------------------|
G|-77-777-----5-55--------1010-101010-77-777-----5-55--------10/12\10----|
D|-77-777-777-5-55-55-555-1010-101010-77-777-777-5-55-55-555-10/12\10-10-|
A|-55-555-777-3-33-55-555--8-8--8-8-8-55-555-777-3-33-55-555--8/10\-8-10-|
E|--------555------33-333--------------------555------33-333-----------8-|

chorus \"say what you wanna say..."\
e|--------------------------------------------------------------------|
B|--------------------------------------------------------------------|
G|-77-777-----5-55--------1010-101010-77-777-----5-55--------10109/10-|
D|-77-777-777-5-55-55-555-1010-101010-77-777-777-5-55-55-555-10109/10-|
A|-55-555-777-3-33-55-555--8-8--8-8-8-55-555-777-3-33-55-555--8-87/-8-|
E|--------555------33-333--------------------555------33-333----------|

pre-verse
e|------------------------------------------------------------------------|
B|------------------------------------------------------------------------|
G|--5h7777777---------5h77777-99/1010\9-5h7777777---------5h77777-10-9-10-|
D|--0-0000000-7777777-0-00000-00--0-0-0-0-0000000-7777777-0-00000-10-9-10-|
A|------------0000000-----------------------------0000000----------8-7--8-|
E|------------------------------------------------------------------------|

e|------------------------------------------------------------------------|
B|------------------------------------------------------------------------|
G|--5h7777777---------5h77777-99/1010\9-5h7777777---------5h77777-10-9-10-|
D|--0-0000000-7777777-0-00000-00--0-0-0-0-0000000-7777777-0-00000-10-9-10-|
A|------------0000000-----------------------------0000000----------8-7--8-|
E|------------------------------------------------------------------------|

verse \"all the methods that i use..."\
e|-------------------------------------------------------------------|
B|-------------------------------------------------------------------|
G|-7777-7-----5555--------10-X-9-X-10-7777-7-----5555--------10-9-10-|
D|-7777-7-777-5555-5555-5-10-X-9-X-10-7777-7-777-5555-5555-5-10-9-10-|
A|-5555-5-777-3333-5555-5--8-X-7-X--8-5555-5-777-3333-5555-5--8-7--8-|
E|--------555------3333-3--------------------555------3333-3---------|
pm ....   ... .... ....   .. . . . .. ....   ... .... ....
[ Tab from: http://www.guitartabs.cc/tabs/p/pennywise/badge_of_pride_tab_ver_2.html ]
verse \"but somehow i was saved..."\
e|-------------------------------------------------------------------------|
B|-------------------------------------------------------------------------|
G|-7777-7-----5555--------10-X-9-X-10-7-777-7-----5555-------10101010101010|
D|-7777-7-777-5555-5555-5-10-X-9-X-10-7-777-7-777-5555-55555-10101010101010|
A|-5555-5-777-3333-5555-5--8-X-7-X--8-5-555-5-777-3333-55555--8-8-8-8-8-8-8|
E|--------555------3333-3---------------------555------33333---------------|
pm ....   ... .... ....   .. . . . ..   ...   ... .... 

chorus \"it is my badge of pride..."\
e|-----------------------------------------------------------------------|
B|-----------------------------------------------------------------------|
G|-77-777-----5-55--------1010-101010-77-777-----5-55--------10/12\10----|
D|-77-777-777-5-55-55-555-1010-101010-77-777-777-5-55-55-555-10/12\10-10-|
A|-55-555-777-3-33-55-555--8-8--8-8-8-55-555-777-3-33-55-555--8/10\-8-10-|
E|--------555------33-333--------------------555------33-333-----------8-|

chorus \"say what you wanna say..."\
e|--------------------------------------------------------------------|
B|--------------------------------------------------------------------|
G|-77-777-----5-55--------1010-101010-77-777-----5-55--------10109/10-|
D|-77-777-777-5-55-55-555-1010-101010-77-777-777-5-55-55-555-10109/10-|
A|-55-555-777-3-33-55-555--8-8--8-8-8-55-555-777-3-33-55-555--8-87/-8-|
E|--------555------33-333--------------------555------33-333----------|

solo rythm \"...how it's gotta be..."\
e|-----------------------------------------------------------------------|
B|-----------------------------------------------------------------------|
G|-77-777-----5-55--------1010-101010-77-777-----5-55--------10/12\10----|
D|-77-777-777-5-55-55-555-1010-101010-77-777-777-5-55-55-555-10/12\10-10-|
A|-55-555-777-3-33-55-555--8-8--8-8-8-55-555-777-3-33-55-555--8/10\-8-10-|
E|--------555------33-333--------------------555------33-333-----------8-|

e|-------------------------------------------------------------------|
B|-------------------------------------------------------------------|
G|-77-777-----5-55--------1010-101010-77-777-----5-55--------10-9-10-|
D|-77-777-777-5-55-55-555-1010-101010-77-777-777-5-55-55-555-10-9-10-|
A|-55-555-777-3-33-55-555--8-8--8-8-8-55-555-777-3-33-55-555--8-7--8-|
E|--------555------33-333--------------------555------33-333---------|

bridge
e|-------------------------------------------------------|
B|-------------------------------------------8b~~r--6----|
G|-7777-7~------------10--9--10-----------------------7--|
D|-7777-7~------------10--9--10--------------------------|
A|-5555-5~-------------8--7---8--------------------------|
E|---------bass--bass------------bass--bass--------------|
pm ....

interlude \"all the bullshit that i see..."\
e|-------------------------------------------------------------------------|
B|-------------------------------------------------------------------------|
G|--------------------------10-9-10-------------------------10101010101010-|
D|--------------------------10-9-10------------------55-555-10101010101010-|
A|---------------------------8-7--8------------------55-555--8-8-8-8-8-8-8-|
E|-bass--bass--bass--bass-----------bass--bass--bass-33-333----------------|

chorus \"it is my badge of pride..."\
e|-----------------------------------------------------------------------|
B|-----------------------------------------------------------------------|
G|-77-777-----5-55--------1010-101010-77-777-----5-55--------10/12\10----|
D|-77-777-777-5-55-55-555-1010-101010-77-777-777-5-55-55-555-10/12\10-10-|
A|-55-555-777-3-33-55-555--8-8--8-8-8-55-555-777-3-33-55-555--8/10\-8-10-|
E|--------555------33-333--------------------555------33-333-----------8-|

chorus \"say what you wanna say..."\
e|--------------------------------------------------------------------|
B|--------------------------------------------------------------------|
G|-77-777-----5-55--------1010-101010-77-777-----5-55--------10\9-7-9-|
D|-77-777-777-5-55-55-555-1010-101010-77-777-777-5-55-55-555-10\9-7-9-|
A|-55-555-777-3-33-55-555--8-8--8-8-8-55-555-777-3-33-55-555--8\7-5-7-|
E|--------555------33-333--------------------555------33-333----------|

outro \"...how it's gotta be..."\
e|-----------------------------------------------------------------------|
B|-----------------------------------------------------------------------|
G|-77-777-----5-55--------1010-101010-77-777-----5-55--------10/12\10----|
D|-77-777-777-5-55-55-555-1010-101010-77-777-777-5-55-55-555-10/12\10-10-|
A|-55-555-777-3-33-55-555--8-8--8-8-8-55-555-777-3-33-55-555--8/10\-8-10-|
E|--------555------33-333--------------------555------33-333-----------8-|

e|-------------------------------------------------------------------------|
B|-------------------------------------------------------------------------|
G|-77-777-----5-55--------1010-101010-77-777-----5-55---------101010\910-7-|
D|-77-777-777-5-55-55-555-1010-101010-77-777-777-5-55-5-5-555-101010\910-7-|
A|-55-555-777-3-33-55-555--8-8--8-8-8-55-555-777-3-33-5-5-555--8-8-8\7-8-5-|
E|--------555------33-333--------------------555------3-3-333--------------|

thats it...
comments at el_diablo7th@freenet.de
cYa
Comments