Pennywise - Badge Of Pride Chords & Tabs

 

Badge Of Pride Chords & Tabs

Pennywise Chords & Tabs

Version: 1 Type: Tab 0 ratings
1 star 2 stars 3 stars 4 stars 5 stars
comments

Badge Of Pride Tab

Pennywise - Badge Of Pride
By:tonytaylor@home.com

        Intro
e|--------------------------------------------------------------------|
B|--------------------------------------------------------------------|
G|-7-7-7-7-7--9-9-9--10-10-10-10---12--12-12--14--14-14-14--14--------
D|--------------------------------------------------------------------|
A|-5-5-5-5-5--7-7-7---8--8--8--8---10--10-10--12--12-12-12--12--------
E|--------------------------------------------------------------------|
     Guitar 1(with delay effects)
e|--------------------------------------------------------------------|
B|--------------------------------------------------------------------|
G|-5-\-7--------------------------------------------------------------
D|--------------------------------------------------------------------|
A|-3-\-5--------------------------------------------------------------
E|--------------------------------------------------------------------|
    Guitar 2
e|--------------------------------------------------------------------|
B|--------------------------------------------------------------------|
G|-5h7-7-7-7-----------5h7-7-7-7-7--9-9-9-10-10-10---5h7-7-7-7---------
D|-0-0-0-0-0--7-7-7-7--0-0-0-0-0-0--0-0-0--0--0--0---0-0-0-0-0--------
A|------------0-0-0-0-------------------------------------------------
E|--------------------------------------------------------------------|
[ Tab from: http://www.guitartabs.cc/tabs/p/pennywise/badge_of_pride_tab.html ]
e|--------------------------------------------------------------------|
B|--------------------------------------------------------------------|
G|----------5h7-7-7-7-7-10--9-10---------------------------------------
D|-7-7-7-7--0-0-0-0-0-0------------------------------------------------
A|-0-0-0-0------------------------------------------------------------
E|--------------------------------------------------------------------|
    Verse(plalm mute)
e|--------------------------------------------------------------------|
B|--------------------------------------------------------------------|
G|-7-7-7-7-7--------5-5-5-5------------10-9-10-----------------------
D|-7-7-7-7-7--7-7-7-5-5-5-5--5-5-5-5---10-9-10--------------------------
A|-5-5-5-5-5--7-7-7-3-3-3-3--5-5-5-5----8-7--8-------------------------
E|------------5-5-5----------3-3-3-3-----------------------------------
    Chorus
e|--------------------------------------------------------------------|
B|--------------------------------------------------------------------|
G|-7-7-7-7-7---------5-5-5----------10-10-10-10------------------------
D|-7-7-7-7-7--7-7-7--5-5-5--5-5-5-5-10-10-10-10------------------------
A|-5-5-5-5-5--7-7-7--3-3-3--5-5-5-5--8--8--8--8-------------------------
E|------------5-5-5---------3-3-3-3------------------------------------
    Interlude(with delay effect)
e|--------------------------------------------------------------------|
B|----------------------------------------------8b-8--6---------------|
G|-5\-7---------10--9--10---------5--7--5--7-------------7------------
D|--------------------------------------------------------------------|
A|-3\-5----------8--7---8---------------------------------------------
E|--------------------------------------------------------------------|
Comments