Pennywise - Anyone Listening Chords & Tabs

 

Anyone Listening Chords & Tabs

Pennywise Chords & Tabs

Version: 4 Type: Tab 0 ratings
1 star 2 stars 3 stars 4 stars 5 stars
comments

Anyone Listening Tab

   
Song: Anyone Listening
Artist: Pennywise
Album: Land of the Free?
Tabbed by: TheRisen (multani89@operamail.com)

(update)

I made this correction to the other tab on this site. That one was ok, but it had a few mistakes in it.

Intro:
e|-------------------------|
B|-------------------------|
G|-------12----------14-14-|
D|----14----14-12-12-------|
A|-12----------------------|
E|-------------------------|

Intro/Verse:
Only palm mute the first two times in the verse.
e|-----------------------------------------|
B|-----------------------------------------|
G|---------10-10-10-10-------------------5-|
D|-7-7-7-7-10-10-10-10-10-10-10-10-5-5-5-5-|
A|-7-7-7-7-8--8--8--8--10-10-10-10-5-5-5-3-|
E|-5-5-5-5-------------8--8--8--8--3-3-3---|
PM . .     .  .        .  .        . .
[ Tab from: http://www.guitartabs.cc/tabs/p/pennywise/anyone_listening_tab_ver_4.html ]
Pre-Chorus:
e|---------------------------------|
B|---------------------------------|
G|---------------------------------|
D|-3-3-3-3-3-3-3-3-5-5-5-5-5-5-5-5-|
A|-3-3-3-3-3-3-3-3-5-5-5-5-5-5-5-5-|
E|-1-1-1-1-1-1-1-1-3-3-3-3-3-3-3-3-|
                                
Chorus:
e|---------------------------------|       
B|---------------------------------|         
G|---------------------------------| 4x          
D|-7-7-7-7-7-7-7-7-3-3-3-3-5-5-5-5-|
A|-7-7-7-7-7-7-7-7-3-3-3-3-5-5-5-5-|          
E|-5-5-5-5-5-5-5-5-1-1-1-1-3-3-3-3-|        
PM . .

e|---|
B|---|
G|-7-| 8x
D|-7-|
A|-5-|
E|---|
  
Bridge:

e|---------------------------------------------|
B|---------------------------------------------|
G|10-------------7---9---10-----9---7----------|
D|10(16x)-7------7---9---10(12x)9---7---7------|
A|8-------7(16x)-5---7---8------7---5---7(12x)-|
E|--------5-----------------------------5------|

e|-------------------------------------------------------|
B|-------------------------------------------------------|
G|-7---9---10----12-----9---7--------7---9-10------9---7-|
D|-7---9---10(6x)12(6x)-9---7-7------7---9-10(12x)-9---7-|
A|-5---7---8-----10-----7---5-7(12x)-5---7-8-------7---5-|
E|----------------------------5--------------------------|

Order:
Intro
Verse
Chorus
Intro
Verse 
Chorus
Intro
Bridge 
Chorus
Chorus
Comments