Pennywise - Alien Chords & Tabs

 

Alien Chords & Tabs

Pennywise Chords & Tabs

Version: 8 Type: Tab 0 ratings
1 star 2 stars 3 stars 4 stars 5 stars
comments

Alien Tab

Alein By Pennywise
Tabbed by: MWMMak

This Tab is correct and easier than the other ones. It has better positions.

Intro:
e[-------------------]
B[-------------------]
G[-------------------]
D[------7/5--888-7/8-]  X4
A[--555------666-----]
E[--333--------------]

Verse1:
e[----------------------------------------------------------------------------
B[----------------------------------------------------------------------------
G[----------------------------------------------------------------------------
D[-------7777-8888------------7777-888---7/8/7------7777-8888------------7777-
A[--5555-5555-6666-8888--5555-5555-666-8-5/6/5-5555-5555-6666-8888--5555-5555-
E[--3333-----------6666--3333----------6-------3333-----------6666--3333------

e[-----------]
B[-----------]
G[-----------]
D[--8888-----]  X1
A[--6666-8---]
E[-------6---]

Switch pickup to Jazz pickup right here. the rest of the song is played on the Rock pickup.
Palm Mute1:
e[--------------------------------------------------------------------------
B[--------------------------------------------------------------------------
G[--------------------------------------------------------------------------
D[--------------------------------------------------------------------------
A[-------5555-6666-----------5555-666---5/6/5------5555-6666-----------5555-
E[--3333-----------6666-3333----------6-------3333-----------6666-3333------

e[----------]
B[----------]
G[----------]
D[----------]  X1 In the time where your holding the last note switch the pickup
A[--6666----]
E[-------6--]


Verse2:
e[--------------------------------------------------------------------------
B[--------------------------------------------------------------------------
G[--------------------------------------------------------------------------
D[-------7777-8888-----------7777-888---7/8/7------7777-8888-----------7777-
A[--5555-5555-6666-8888-5555-5555-666-8-5/6/5-5555-5555-6666-8888-5555-5555-
E[--3333-----------6666-3333----------6-------3333-----------6666-3333------

e[---------------]
B[---------------]
G[---------------]
D[--8888---7/8/7-]  X1 The last notes go directly into the chorus there's
A[--6666-8-5/6/5-]    no pause.
E[-------6-------]

Chorus:
e[------------------------------------------------------------------------
B[------------------------------------------------------------------------
G[------------------------------------------------------------------------
D[-8888888-10101010101010-7777777---------8888888-10101010101010-77777777-
A[-6666666-8-8-8-8-8-8-8--5555555-5555555-6666666-8-8-8-8-8-8-8--55555555-
E[--------------------------------3333333---------------------------------

e[---------------------------------------------------------------------------
B[---------------------------------------------------------------------------
G[---------------------------------------------------------------------------
D[-----------8888888-10101010101010-77777777----------8888888-10101010101010-
A[--55555555-6666666-8-8-8-8-8-8-8--55555555-55555555-6666666-8-8-8-8-8-8-8--
E[--33333333---------------------------------33333333------------------------
[ Tab from: http://www.guitartabs.cc/tabs/p/pennywise/alien_tab_ver_8.html ]
e[-------------]
B[-------------]
G[-------------]
D[--77777777---]
A[--55555555---]
E[-------------]


Verse1

Palm Mute2:
e[--------------------------------------------------------------------------
B[--------------------------------------------------------------------------
G[--------------------------------------------------------------------------
D[-------7777-8888-----------7777-888---7/8/7------7777-8888-----------7777-
A[--5555-5555-6666-8888-5555-5555-666-8-5/6/5-5555-5555-6666-8888-5555-5555-
E[--3333-----------6666-3333----------6-------3333-----------6666-3333------

e[---------]
B[---------]
G[---------]
D[--8888---]
A[--6666-8-]
E[-------6-]

Verse2

Chorus

Solo:
e[--------------------------------------------------------------------------
B[--------------------------------------------------------------------------
G[--12-12-12-12-12-12-12-12-15-15-15-15-15-15-15-15-12-12-12-12-12-12-12-12-
D[--------------------------------------------------------------------------
A[--------------------------------------------------------------------------
E[--------------------------------------------------------------------------

e[--------------------------------------------------------------------------
B[--16-16-16-16-16-16-16-16-------------------------------------------------
G[--------------------------12-12-12-12-12-12-12-12-15-15-15-15-15-15-15-15-
D[--------------------------------------------------------------------------
A[--------------------------------------------------------------------------
E[--------------------------------------------------------------------------

e[---------------------------------------------------------------------------
B[--------------------------16-16-16-16-16-16-16-16--------------------------
G[--12-12-12-12-12-12-12-12-------------------------12--12--12-15-14---12--12
D[----------------------------------------------------12--12--------15---12--
A[---------------------------------------------------------------------------
E[---------------------------------------------------------------------------

e[---------------------------------------------------------------]
B[------------13------------------13---------13------------------]
G[----12-15-14--12--12--12-15-14----15-14-15---15-14-14-12~~~~~~~]
D[--12------------12--12--------15-------------------------------]
A[---------------------------------------------------------------]
E[---------------------------------------------------------------]

Palm Mute3:

e[------------------------------------------------]
B[------------------------------------------------]
G[------------------------------------------------]
D[-------7777-8888-----------*7777777-888---7/8/7-]
A[--5555-5555-6666-8888-5555-*5555555-666-8-5/6/5-]
E[--3333-----------6666-3333--------------6-------]
The * is when you stop palm muting.

Chorus

Ending:                     Ending Note:

e[--------------------]     e[-------------]
B[--------------------]     B[-------------]
G[--------------------]     G[-------------]
D[----------88888888--]     D[-------------]
A[-55555555-66666666--]  X8 A[-5~~~~~~~~~~~]
E[-33333333-----------]     E[-3~~~~~~~~~~~]
Comments