Pennywise - Alien Chords & Tabs

 

Alien Chords & Tabs

Pennywise Chords & Tabs

Version: 7 Type: Tab 0 ratings
1 star 2 stars 3 stars 4 stars 5 stars
comments

Alien Tab

   
-------------------------------------------------------------------------------
                                 ALIEN - Pennywise
-------------------------------------------------------------------------------

By Prophecy (disparage2001@hotmail.com)


^^^ - PALM MUTE

Intro
e|-----------------------------------------------------------|
B|-----------------------------------------------------------|
G|-----------------------------------------------------------|
D|-5-5-5--7-5-5--8-8-8---7-8-8---5-5-5--7-5-5--8-8-8--7-8-7--|
A|-5-5-5---------8-8-8-----------5-5-5---------8-8-8---------|
E|-3-3-3---------6-6-6-----------3-3-3---------6-6-6---------|

e|-----------------------------------------------------------|
B|-----------------------------------------------------------|
G|-----------------------------------------------------------|
D|-5-5-5--7-5-5--8-8-8---7-8-8---5-5-5--7-5-5--8-8-8--7-8-7--|
A|-5-5-5---------8-8-8-----------5-5-5---------8-8-8---------|
E|-3-3-3---------6-6-6-----------3-3-3---------6-6-6---------|

e|---------------------------------------------------------------------------|
B|---------------------------------------------------------------------------|
G|----------7-7-7-7--8-8-8-8-----------------------7-7-7-7--8-8-8-8----------|
D|-5-5-5-5--7-7-7-7--8-8-8-8--8-8-8-8-----5-5-5-5--7-7-7-7--8-8-8-8----------|
A|-5-5-5-5--5-5-5-5--6-6-6-6--8-8-8-8-----5-5-5-5--5-5-5-5--6-6-6-6----5-6-5-|
E|-3-3-3-3--------------------6-6-6-6-----3-3-3-3--------------------6-------|


e|---------------------------------------------------------------------------|
B|---------------------------------------------------------------------------|
G|----------7-7-7-7--8-8-8-8-----------------------7-7-7-7--8-8-8-8----------|
D|-5-5-5-5--7-7-7-7--8-8-8-8--8-8-8-8-----5-5-5-5--7-7-7-7--8-8-8-8--8-------|
A|-5-5-5-5--5-5-5-5--6-6-6-6--8-8-8-8-----5-5-5-5--5-5-5-5--6-6-6-6--8-------|
E|-3-3-3-3--------------------6-6-6-6-----3-3-3-3--------------------6-------|


Verse
e|---------------------------------------------------------------------------|
B|---------------------------------------------------------------------------|
G|---------------------------------------------------------------------------|
D|---------------------------------------------------------------------------|
A|----------5-5-5-5--6-6-6-6--------------------5-5-5-5--6-6-6-6-----5-6-5---|
E|--3-3-3-3-------------------6-6-6-6---3-3-3-3--------------------6---------|
    ^^^^^^^^^^^^^^^^^^^^^^^^^^^^^^^^^^^^^^^^^^^^^^^^^^^^^^^^^^^^^^^^^^^^^^
e|---------------------------------------------------------------------------|
B|---------------------------------------------------------------------------|
G|---------------------------------------------------------------------------|
D|---------------------------------------------------------------------------|
A|----------5-5-5-5--6-6-6-6--------------------5-5-5-5--6-6-6-6-------------|
E|--3-3-3-3-------------------6-6-6-6---3-3-3-3--------------------6---------|
    ^^^^^^^^^^^^^^^^^^^^^^^^^^^^^^^^^^^^^^^^^^^^^^^^^^^^^^^^^^^^^^^^

e|---------------------------------------------------------------------------|
B|---------------------------------------------------------------------------|
G|----------7-7-7-7--8-8-8-8-----------------------7-7-7-7--8-8-8-8----7-8-7-|
D|-5-5-5-5--7-7-7-7--8-8-8-8--8-8-8-8-----5-5-5-5--7-7-7-7--8-8-8-8--8-7-8-7-|
A|-5-5-5-5--5-5-5-5--6-6-6-6--8-8-8-8-----5-5-5-5--5-5-5-5--6-6-6-6--8-5-6-5-|
E|-3-3-3-3--------------------6-6-6-6-----3-3-3-3--------------------6-------|

e|---------------------------------------------------------------------------|
B|---------------------------------------------------------------------------|
G|----------7-7-7-7--8-8-8-8-----------------------7-7-7-7--8-8-8-8----7-8-7-|
D|-5-5-5-5--7-7-7-7--8-8-8-8--8-8-8-8-----5-5-5-5--7-7-7-7--8-8-8-8--8-7-8-7-|
A|-5-5-5-5--5-5-5-5--6-6-6-6--8-8-8-8-----5-5-5-5--5-5-5-5--6-6-6-6--8-5-6-5-|
E|-3-3-3-3--------------------6-6-6-6-----3-3-3-3--------------------6-------|



Chorus                                         
e|---------------------------------------------------------------------------|
B|---------------------------------------------------------------------------|
G|-8-8-8-8-8-8-8-8--10-10-10-10-10-10-10-10--7-7-7-7-7-7-7-7-----------------|
D|-8-8-8-8-8-8-8-8--10-10-10-10-10-10-10-10--7-7-7-7-7-7-7-7--5-5-5-5-5-5-5-5|
A|-6-6-6-6-6-6-6-6---8--8--8--8--8--8-8--8---5-5-5-5-5-5-5-5--5-5-5-5-5-5-5-5|
E|------------------------------------------------------------3-3-3-3-3-3-3-3|

e|---------------------------------------------------------------------------|
B|---------------------------------------------------------------------------|
G|-8-8-8-8-8-8-8-8--10-10-10-10-10-10-10-10--7-7-7-7-7-7-7-7-----------------|
D|-8-8-8-8-8-8-8-8--10-10-10-10-10-10-10-10--7-7-7-7-7-7-7-7--5-5-5-5-5-5-5-5|
A|-6-6-6-6-6-6-6-6---8--8--8--8--8--8-8--8---5-5-5-5-5-5-5-5--5-5-5-5-5-5-5-5|
E|------------------------------------------------------------3-3-3-3-3-3-3-3|
							      ^^^^^^^^^^^^^^^
e|---------------------------------------------------------------------------|
B|---------------------------------------------------------------------------|
G|-8-8-8-8-8-8-8-8--10-10-10-10-10-10-10-10--7-7-7-7-7-7-7-7-----------------|
D|-8-8-8-8-8-8-8-8--10-10-10-10-10-10-10-10--7-7-7-7-7-7-7-7--5-5-5-5-5-5-5-5|
A|-6-6-6-6-6-6-6-6---8--8--8--8--8--8-8--8---5-5-5-5-5-5-5-5--5-5-5-5-5-5-5-5|
E|------------------------------------------------------------3-3-3-3-3-3-3-3|

e|---------------------------------------------------------------------------|
B|---------------------------------------------------------------------------|
G|-8-8-8-8-8-8-8-8--10-10-10-10-10-10-10-10--7-7-7-7-7-7-7-7--7--------------|
D|-8-8-8-8-8-8-8-8--10-10-10-10-10-10-10-10--7-7-7-7-7-7-7-7--7--------------|
A|-6-6-6-6-6-6-6-6---8--8--8--8--8--8-8--8---5-5-5-5-5-5-5-5--5--------------|
E|---------------------------------------------------------------------------|


e|-----------------------------------------------------------|
B|-----------------------------------------------------------|
G|-----------------------------------------------------------|
D|-5-5-5--7-5-5--8-8-8---7-8-8---5-5-5--7-5-5--8-8-8--7-8-7--|
A|-5-5-5---------8-8-8-----------5-5-5---------8-8-8---------|
E|-3-3-3---------6-6-6-----------3-3-3---------6-6-6---------|

e|-----------------------------------------------------------|
B|-----------------------------------------------------------|
G|-----------------------------------------------------------|
D|-5-5-5--7-5-5--8-8-8---7-8-8---5-5-5--7-5-5--8-8-8--7-8-7--|
A|-5-5-5---------8-8-8-----------5-5-5---------8-8-8---------|
E|-3-3-3---------6-6-6-----------3-3-3---------6-6-6---------|


e|---------------------------------------------------------------------------|
B|---------------------------------------------------------------------------|
G|----------7-7-7-7--8-8-8-8-----------------------7-7-7-7--8-8-8-8----7-8-7-|
D|-5-5-5-5--7-7-7-7--8-8-8-8--8-8-8-8-----5-5-5-5--7-7-7-7--8-8-8-8--8-7-8-7-|
A|-5-5-5-5--5-5-5-5--6-6-6-6--8-8-8-8-----5-5-5-5--5-5-5-5--6-6-6-6--8-5-6-5-|
E|-3-3-3-3--------------------6-6-6-6-----3-3-3-3--------------------6-------|
   ^^^^^^^^^^^^^^^^^^^^^^^^^^^^^^^^^^^^^^^^^^^^^^^^^^^^^^^^^^^^^^^^^^^^^^^^^

e|---------------------------------------------------------------------------|
B|---------------------------------------------------------------------------|
G|----------7-7-7-7--8-8-8-8-----------------------7-7-7-7--8-8-8-8----------|
D|-5-5-5-5--7-7-7-7--8-8-8-8--8-8-8-8-----5-5-5-5--7-7-7-7--8-8-8-8--8-------|
A|-5-5-5-5--5-5-5-5--6-6-6-6--8-8-8-8-----5-5-5-5--5-5-5-5--6-6-6-6--8-------|
E|-3-3-3-3--------------------6-6-6-6-----3-3-3-3--------------------6-------|
 ^^^^^^^^^^^^^^^^^^^^^^^^^^^^^^^^^^^^^^^^^^^^^^^^^^^^^^^^^^^^^^^^^^^^^
[ Tab from: http://www.guitartabs.cc/tabs/p/pennywise/alien_tab_ver_7.html ]
e|---------------------------------------------------------------------------|
B|---------------------------------------------------------------------------|
G|----------7-7-7-7--8-8-8-8-----------------------7-7-7-7--8-8-8-8----7-8-7-|
D|-5-5-5-5--7-7-7-7--8-8-8-8--8-8-8-8-----5-5-5-5--7-7-7-7--8-8-8-8--8-7-8-7-|
A|-5-5-5-5--5-5-5-5--6-6-6-6--8-8-8-8-----5-5-5-5--5-5-5-5--6-6-6-6--8-5-6-5-|
E|-3-3-3-3--------------------6-6-6-6-----3-3-3-3--------------------6-------|


e|---------------------------------------------------------------------------|
B|---------------------------------------------------------------------------|
G|----------7-7-7-7--8-8-8-8-----------------------7-7-7-7--8-8-8-8----7-8-7-|
D|-5-5-5-5--7-7-7-7--8-8-8-8--8-8-8-8-----5-5-5-5--7-7-7-7--8-8-8-8--8-7-8-7-|
A|-5-5-5-5--5-5-5-5--6-6-6-6--8-8-8-8-----5-5-5-5--5-5-5-5--6-6-6-6--8-5-6-5-|
E|-3-3-3-3--------------------6-6-6-6-----3-3-3-3--------------------6-------|


e|---------------------------------------------------------------------------|
B|---------------------------------------------------------------------------|
G|-8-8-8-8-8-8-8-8--10-10-10-10-10-10-10-10--7-7-7-7-7-7-7-7-----------------|
D|-8-8-8-8-8-8-8-8--10-10-10-10-10-10-10-10--7-7-7-7-7-7-7-7--5-5-5-5-5-5-5-5|
A|-6-6-6-6-6-6-6-6---8--8--8--8--8--8-8--8---5-5-5-5-5-5-5-5--5-5-5-5-5-5-5-5|
E|------------------------------------------------------------3-3-3-3-3-3-3-3|

e|---------------------------------------------------------------------------|
B|---------------------------------------------------------------------------|
G|-8-8-8-8-8-8-8-8--10-10-10-10-10-10-10-10--7-7-7-7-7-7-7-7-----------------|
D|-8-8-8-8-8-8-8-8--10-10-10-10-10-10-10-10--7-7-7-7-7-7-7-7--5-5-5-5-5-5-5-5|
A|-6-6-6-6-6-6-6-6---8--8--8--8--8--8-8--8---5-5-5-5-5-5-5-5--5-5-5-5-5-5-5-5|
E|------------------------------------------------------------3-3-3-3-3-3-3-3|
                                                              ^^^^^^^^^^^^^^^
e|---------------------------------------------------------------------------|
B|---------------------------------------------------------------------------|
G|-8-8-8-8-8-8-8-8--10-10-10-10-10-10-10-10--7-7-7-7-7-7-7-7-----------------|
D|-8-8-8-8-8-8-8-8--10-10-10-10-10-10-10-10--7-7-7-7-7-7-7-7--5-5-5-5-5-5-5-5|
A|-6-6-6-6-6-6-6-6---8--8--8--8--8--8-8--8---5-5-5-5-5-5-5-5--5-5-5-5-5-5-5-5|
E|------------------------------------------------------------3-3-3-3-3-3-3-3|

e|---------------------------------------------------------------------------|
B|---------------------------------------------------------------------------|
G|-8-8-8-8-8-8-8-8--10-10-10-10-10-10-10-10--7-7-7-7-7-7-7-7--7--------------|
D|-8-8-8-8-8-8-8-8--10-10-10-10-10-10-10-10--7-7-7-7-7-7-7-7--7--------------|
A|-6-6-6-6-6-6-6-6---8--8--8--8--8--8-8--8---5-5-5-5-5-5-5-5--5--------------|
E|---------------------------------------------------------------------------|


e|-----------------------------------------------------------|
B|-----------------------------------------------------------|
G|-----------------------------------------------------------|
D|-5-5-5--7-5-5--8-8-8---7-8-8---5-5-5--7-5-5--8-8-8--7-8-7--|
A|-5-5-5---------8-8-8-----------5-5-5---------8-8-8---------|
E|-3-3-3---------6-6-6-----------3-3-3---------6-6-6---------|

e|-----------------------------------------------------------|
B|-----------------------------------------------------------|
G|-----------------------------------------------------------|
D|-5-5-5--7-5-5--8-8-8---7-8-8---5-5-5--7-5-5--8-8-8--7-8-7--|
A|-5-5-5---------8-8-8-----------5-5-5---------8-8-8---------|
E|-3-3-3---------6-6-6-----------3-3-3---------6-6-6---------|

Pre-Solo (play + notes 8 times)
e|-+---+---+---+--|
B|-12--15--12--9--| 
G|-12--15--12--9--| 
D|----------------|
A|----------------|
E|----------------|

e|---------------------------------------------------------------------------|
B|---------------------------------------------------------------------------|
G|----------7-7-7-7--8-8-8-8-----------------------7-7-7-7--8-8-8-8----7-8-7-|
D|-5-5-5-5--7-7-7-7--8-8-8-8--8-8-8-8-----5-5-5-5--7-7-7-7--8-8-8-8--8-7-8-7-|
A|-5-5-5-5--5-5-5-5--6-6-6-6--8-8-8-8-----5-5-5-5--5-5-5-5--6-6-6-6--8-5-6-5-|
E|-3-3-3-3--------------------6-6-6-6-----3-3-3-3--------------------6-------|


e|---------------------------------------------------------------------------|
B|---------------------------------------------------------------------------|
G|----------7-7-7-7--8-8-8-8-----------------------7-7-7-7--8-8-8-8----------|
D|-5-5-5-5--7-7-7-7--8-8-8-8--8-8-8-8-----5-5-5-5--7-7-7-7--8-8-8-8--8-8-8-8-|
A|-5-5-5-5--5-5-5-5--6-6-6-6--8-8-8-8-----5-5-5-5--5-5-5-5--6-6-6-6--8-8-8-8-|
E|-3-3-3-3--------------------6-6-6-6-----3-3-3-3--------------------6-6-6-6-|

Solo
e|--------------------------------------------------------------------------------|
B|-------------------------------------------------15-----------------------------|
G|-12----12----12-15-14-------12----12----12-15-14-------12----12----12-15-14-----|
D|----12----12----------15-------12----12-------------------12----12----------15--|
A|--------------------------------------------------------------------------------|
E|--------------------------------------------------------------------------------|

Solo cont.                             
e|--------------------------------|    
B|-13------------13---------------|    
G|-----15-14-15------15-14-15-12~-|    
D|--------------------------------|    
A|--------------------------------|   
E|--------------------------------|    


e|---------------------------------------------------------------------------|
B|---------------------------------------------------------------------------|
G|----------7-7-7-7--8-8-8-8-----------------------7-7-7-7--8-8-8-8----------|
D|-5-5-5-5--7-7-7-7--8-8-8-8--8-8-8-8-----5-5-5-5--7-7-7-7--8-8-8-8--8-8-8-8-|
A|-5-5-5-5--5-5-5-5--6-6-6-6--8-8-8-8-----5-5-5-5--5-5-5-5--6-6-6-6--8-8-8-8-|
E|-3-3-3-3--------------------6-6-6-6-----3-3-3-3--------------------6-6-6-6-|
   ^^^^^^^^^^^^^^^^^^^^^^^^^^^^^^^^^^^^^^^^^^^^^^^^^^^^^^^

e|---------------------------------------------------------------------------|
B|---------------------------------------------------------------------------|
G|-8-8-8-8-8-8-8-8--10-10-10-10-10-10-10-10--7-7-7-7-7-7-7-7-----------------|
D|-8-8-8-8-8-8-8-8--10-10-10-10-10-10-10-10--7-7-7-7-7-7-7-7--5-5-5-5-5-5-5-5|
A|-6-6-6-6-6-6-6-6---8--8--8--8--8--8-8--8---5-5-5-5-5-5-5-5--5-5-5-5-5-5-5-5|
E|------------------------------------------------------------3-3-3-3-3-3-3-3|

e|---------------------------------------------------------------------------|
B|---------------------------------------------------------------------------|
G|-8-8-8-8-8-8-8-8--10-10-10-10-10-10-10-10--7-7-7-7-7-7-7-7-----------------|
D|-8-8-8-8-8-8-8-8--10-10-10-10-10-10-10-10--7-7-7-7-7-7-7-7--5-5-5-5-5-5-5-5|
A|-6-6-6-6-6-6-6-6---8--8--8--8--8--8-8--8---5-5-5-5-5-5-5-5--5-5-5-5-5-5-5-5|
E|------------------------------------------------------------3-3-3-3-3-3-3-3|
                                                              ^^^^^^^^^^^^^^^
e|---------------------------------------------------------------------------|
B|---------------------------------------------------------------------------|
G|-8-8-8-8-8-8-8-8--10-10-10-10-10-10-10-10--7-7-7-7-7-7-7-7-----------------|
D|-8-8-8-8-8-8-8-8--10-10-10-10-10-10-10-10--7-7-7-7-7-7-7-7--5-5-5-5-5-5-5-5|
A|-6-6-6-6-6-6-6-6---8--8--8--8--8--8-8--8---5-5-5-5-5-5-5-5--5-5-5-5-5-5-5-5|
E|------------------------------------------------------------3-3-3-3-3-3-3-3|

e|---------------------------------------------------------------------------|
B|---------------------------------------------------------------------------|
G|-8-8-8-8-8-8-8-8--10-10-10-10-10-10-10-10--7-7-7-7-7-7-7-7--7--------------|
D|-8-8-8-8-8-8-8-8--10-10-10-10-10-10-10-10--7-7-7-7-7-7-7-7--7--------------|
A|-6-6-6-6-6-6-6-6---8--8--8--8--8--8-8--8---5-5-5-5-5-5-5-5--5--------------|
E|---------------------------------------------------------------------------|


Outro [8 TIMES]
e|---------------------------------|
B|---------------------------------|
G|-----------------8-8-8-8-8-8-8-8-|
D|-5-5-5-5-5-5-5-5-8-8-8-8-8-8-8-8-|
A|-5-5-5-5-5-5-5-5-6-6-6-6-6-6-6-6-|
E|-3-3-3-3-3-3-3-3-----------------|
Comments