Pennywise - Alien Chords & Tabs

 

Alien Chords & Tabs

Pennywise Chords & Tabs

Version: 1 Type: Tab 1 rating
1 star 2 stars 3 stars 4 stars 5 stars
comments

Alien Tab

Alien
Pennywise


Intro
-----------------------------------------------------------------
-----------------------------------------------------------------
---------repeat 4x-----------------------------------------------
-----7/5----7/8-----------7777-8888---------------7777-8888------
-555-----888--------5555--5555-6666 8888----5555--5555-6666--8--5-6-5
-333-----666--------3333------------6666----3333-------------6--------


Solo
[ Tab from: http://www.guitartabs.cc/tabs/p/pennywise/alien_tab.html ]
-------------------------------------------------------------------------------------------
-------------------------------------------------------------------------------------------
-12--12--12-15-14----12--12--12-15-14-17---12--12--12-15-14-------17-15-14-15-17-15-14-----
---12--12--------15----12--12----------------12--12--------15--------------------------15--
-------------------------------------------------------------------------------------------
-------------------------------------------------------------------------------------------
Comments