Pendulum - Propane Nightmares Chords & Tabs

 

Pendulum Chords & Tabs

Version: 1 Type: Tab 0 ratings
1 star 2 stars 3 stars 4 stars 5 stars
comments

Propane Nightmares Tab

   
Pendulum - Propane Nightmares - In Silico
tabbed by phemm
p_hemmingsen@hotmail.com

These are some riffs from the song, I just worked them out by ear. It's more electronic 
and electric piano.
This is my first tab. Please rate or comment.

Intro (Trumpets) x4
   G#        D                A#            D         G#
e|--------------------------------------------------------------------|
b|-------3-4--3---1-------------4--3-1-3------------------------------|
g|-0---3-----------2----------3----------3-0---5-3-2--3-2-------------|
D|--------------------------------------------------------------------|
A|--------------------------------------------------------------------|
E|--------------------------------------------------------------------|


 'In a trail of fire I know we will be free again'
   D#       A#       D      G#
e|--------------------------------------------------------------------|
b|--4-4-3-1---1-3-1---------------------------------------------------|
g|----------3-------3-2-3-2-0-----------------------------------------|
D|--------------------------------------------------------------------|
A|--------------------------------------------------------------------|
E|--------------------------------------------------------------------|

'In the end we will be one'
    D#     A#        D
e|--------------------------------------------------------------------|
b|---4-4-3-1---1-3s4--------------------------------------------------|
g|-----------3--------------------------------------------------------|
D|--------------------------------------------------------------------|
A|--------------------------------------------------------------------|
E|--------------------------------------------------------------------|
[ Tab from: http://www.guitartabs.cc/tabs/p/pendulum/propane_nightmares_tab.html ]
Main Riff
e|--------------------------------------------------------------------|
B|-----------------4-3------------------------------------------------|
G|--0-2-3-0---0h3-------------0-2-3-0---0h3-0h5-3---------------------|
D|--------------------------------------------------------------------|
A|--------------------------------------------------------------------|
E|--------------------------------------------------------------------|

'Mind is willing soul remains' 'This woman can not be saved'
    D       F                                              D   C   D
e|----------1-3--------5-3-1---1-3-----5-3-1----1-3-------------------|
B|--3-3-3-3-----3-----------3------3---------3------3-----3-3-3-1-1-3-|
G|--------------------------------------------------------------------|
D|--------------------------------------------------------------------|
A|--------------------------------------------------------------------|
E|--------------------------------------------------------------------|

'Bring it on home' x4
  D       G#             D#    A#    D
e|--------------------------------------------------------------------|
B|--3-1---------------------------------------------------------------|
G|------3-0-----------------------------------------------------------|
D|--------------------------------------------------------------------|
A|--------------------------------------------------------------------|
E|--------------------------------------------------------------------|


Lyrics:
- Intro
Somethingís tearing me down, And down
Canít help but feel itís coming from you
Sheís a gunshot bride, With a trigger cries
I just wonder what weíve gotten ourselves into

In a trail of fire I know we will be free again
In the end we will be one
In a trail of fire Iíll burn before you bury me
Set your sights for the sun

Mind is willing
Soul remains
This woman cannot be saved
From the drawn into the fire
Mind is willing
Soul remains
This woman cannot be saved
From the drawn into the fire
Any danger
Bring it on home (4x)

Much to weak to jump yourself
Heal the wounds or crack the shell
Lift yourself from once below
Much to weak to jump yourself
Heal the wounds or crack the shell
Lift yourself from once below
Praise the anger
Bring it on home (4x)

In a trail of fire I know we will be free again
In the end we will be one
In a trail of fire Ill burn before you bury me
Set your sights for the sun
Bring it on home
Comments