Pendulum - Propane Nightmares Chords & Tabs

 

Pendulum Chords & Tabs

Version: 1 Type: Bass Tab 0 ratings
1 star 2 stars 3 stars 4 stars 5 stars
comments

Propane Nightmares Bass Tab

   
-------------------------------------------------------------------------------
			Propane Nightmares - Pendulum
-------------------------------------------------------------------------------

Tabbed By : Mark Spivey
e-mail: spiveym_2001@yahoo.co.uk

Tuning: Standard

I forgot I had tabbed the whole thing a while ago and not uploaded it...so here it is!

My previous version was just based on the Main Riff that I heard on Propane's first 
on Zane Lowe.

Here is "Propane Nightmares" (the whole song) as it is on "In Silico".

-------------------------------------------------------------------------------

Intro

(00:22)
G]------------------------------------------------------------------------------------------|
D]------------------------------------------------------------------------------------------|
A]-10101010101010101010101010101010-55555555555555555-6666666666666666----------55555555----|
E]---------------------------------------------------------------------66666666-------------| x2

Part Two (Intro)

(00:44)

G]------------------------------------------------------|
D]------------------------------------------------------|
A]------------------------------------------------------|
E]--1111111111111111-66666666-1010101010101010-33333333-|

G]-------------------------------------------------------------|
D]-------------------------------------------------------------|
A]-------------------------------------------------------------|
E]--1111111111111111-66666666-10101010101010101010101010101010-| x2

Main Riff

(01:06)
G]----------------------------------------------------------------------|
D]----------------------------------------------------------------------|
A]-------------8-7-------------------------------8-7--------------------|
E]--3-5-6--3-6------3-5-6--3-6-5-8-6--3-5-6--3-6------66666666-88888888-| x2

Verse

(01:28)

G]------------------------------------------------|
D]------------------------------------------------|
A]------------------------------------------------|
E]--3333333333333333/66-55-3333333333333333/66-55-|

G]------------------------------------------------|
D]------------------------------------------------|
A]------------------------------------------------|
E]--3333333333333333/66-55-6666666-8888/13131313--| x1

G]------------------------------------------------|
D]------------------------------------------------|
A]------------------------------------------------|
E]--3333333333333333/66-55-3333333333333333/66-55-|

G]------------------------------------------------|
D]------------------------------------------------|
A]------------------------------------------------|
E]--3333333333333333/66-55-6666666-8888-----------| x1

Chorus

(01:51)

G]------------------------------------------------------|
D]------------------------------------------------------|
A]------------------------------------------------------|
E]--33333333-1111111111111111-1313131313131313-88888888-|

G]------------------------------------------------------|
D]------------------------------------------------------|
A]------------------------------------------------------|
E]--33333333-1111111111111111-1313131313131313----------|

Main Riff

(02:12)
[ Tab from: http://www.guitartabs.cc/tabs/p/pendulum/propane_nightmares_btab.html ]
G]----------------------------------------------------------------------|
D]----------------------------------------------------------------------|
A]-------------8-7-------------------------------8-7--------------------|
E]--3-5-6--3-6------3-5-6--3-6-5-8-6--3-5-6--3-6------66666666-88888888-| x2

Verse

(02:34)

G]------------------------------------------------|
D]------------------------------------------------|
A]------------------------------------------------|
E]--3333333333333333/66-55-3333333333333333/66-55-|

G]------------------------------------------------|
D]------------------------------------------------|
A]------------------------------------------------|
E]--3333333333333333/66-55-6666666-8888/13131313--| x1

G]------------------------------------------------|
D]------------------------------------------------|
A]------------------------------------------------|
E]--3333333333333333/66-55-3333333333333333/66-55-|

G]------------------------------------------------|
D]------------------------------------------------|
A]------------------------------------------------|
E]--3333333333333333/66-55-6666666-8888-----------| x1

Chorus

(02:57)

G]------------------------------------------------------|
D]------------------------------------------------------|
A]------------------------------------------------------|
E]--33333333-1111111111111111-1313131313131313-88888888-| x3

G]------------------------------------------------------|
D]------------------------------------------------------|
A]------------------------------------------------------|
E]--33333333-1111111111111111-1313131313131313-33333----|

(03:19)

Break

Part Two (Intro)

(03:41)

G]------------------------------------------------------|
D]------------------------------------------------------|
A]------------------------------------------------------|
E]--1111111111111111-66666666-1010101010101010-33333333-|

G]-------------------------------------------------------------|
D]-------------------------------------------------------------|
A]-------------------------------------------------------------|
E]--1111111111111111-66666666-10101010101010101010101010101010-| x2

Outro

(04:03)

G|-------------------------------------|
D|-------------------------------------|
A|-------------------------------------|
E|-3-3-333-1-1-11111-8-8-888-6-6-66666-| x7

G|-------------------------------------|
D|-------------------------------------|
A|-------------------------------------|
E|-3-3-333-1-1-11111-8-8-888888888888--|

Outro Main Riff

(04:47)

G]--------------------------------------------------------------------|
D]--------------------------------------------------------------------|
A]-------------8-7-------------------------------8-7------------------|
E]--3-5-6--3-6------3-5-6--3-6-5-8-6--3-5-6--3-6-----3-5-6--3-6-5-8-6-|

G]-----------------------------------------------------------------------|
D]-----------------------------------------------------------------------|
A]-------------8-7-------------------------------8-7---------------------|
E]--3-5-6--3-6------3-5-6--3-6-5-8-6--3-5-6--3-6-----3-5-6-3-5-6-3-8-6-3-|


| /  slide up
| \  slide down
| h  hammer-on
| p  pull-off
| ~  vibrato
| +  harmonic
| x  Mute note
===============================================================================
Comments