Pendulum - Im Not Alone Chords & Tabs

 

Pendulum Chords & Tabs

Version: 1 Type: Tab 0 ratings
1 star 2 stars 3 stars 4 stars 5 stars
comments

Im Not Alone Tab

   

e|---------------------33--77-----------------------------------------------|
B|--00--33--55--33--55--------5--3--1--0------------------------------------|
G|---------------------00--00-----------------------------------------------|2x
D|--------------------------------------------------------------------------|
A|--00--22--33--22--33--------3--2--0--0------------------------------------|
E|--------------------------------------------------------------------------|
[ Tab from: http://www.guitartabs.cc/tabs/p/pendulum/im_not_alone_tab.html ]
e|----------------------------------------------------------------------------|
B|000-111-000-111-000-111-0-1-1-0-1-1-0-1-1-0-1-1-0-1-1-0-1-1-1-1-1-1-1-1-1-1-|
G|----------------------------------------------------------------------------|
D|----------------------------------------------------------------------------|
A|000-000-000-000-000-000-0-0-0-0-0-0-0-0-0-0-0-0-0-0-0-0-0-0-0-0-0-0-0-0-0-0-|
E|----------------------------------------------------------------------------|

e|----------------------------------------------------------------------------|
B|---5-5-5-5-7-8-8-10-7-7-5-3-------------------------------------------------|4x
G|----------------------------------------------------------------------------|
D|----------------------------------------------------------------------------|
A|----------------------------------------------------------------------------|
E|----------------------------------------------------------------------------|

...if I see a light flashing...
e|-------------------------------------------------------------------------|
B|-------------------------------------------------------------------------|
G|--------------------------------------------16-16-16---------------------|
D|-----------------------------------17-17-17------------------------------|
A|--14-14-14-14-17-17-19-19-17-19-17------------------19-19-19-------------|
E|
Comments