Pendulum - Girl In The Fire Intro Chords & Tabs

 

Pendulum Chords & Tabs

Version: 1 Type: Tab 0 ratings
1 star 2 stars 3 stars 4 stars 5 stars
comments

Girl In The Fire Intro Tab

THIS IS NOT MY TAB!

I've been looking for it for so long and finally found it, so I'm only sharing.
A user on this site called "crmrz" posted it on the forum.
Sounds right to me.

Tunning: Standard
Capo: 1st Fret

2nd guitar start with an arpeggio of Am7 (x0x213). It's not the whole song but you can 
from here.


1st guitar
e|-----------------0----------------------------------------------------------|
B|-------------0--------------------------------------------------------------|
G|----------5-----------------5-------------------7---------------------------|
D|-------7----------------7-----7-------5---------------4---------5-----------|
A|----0---------------0---------------------0--------0--------0---------------|
E|----------------------------------------------------------------------------|

e|-----------------0---------------------------------------------------------------------------|
B|-------------0-------------------------------------------------------------------------------|
G|----------5-----------------5--------------5------------------5----------------7-----7-------|
D|-------7----------------7-----7--------7------7---------7------7-----5---5-----4-----4---5---|
A|----0---------------0-------------0----------------0-------------------0---------------------|
E|---------------------------------------------------------------------------------------------|


e|---------------------------------------------------------------------------------------|
B|---------------------------------------------------------------------------------------|
G|----------5---------------5-------------5--------------5-------------5-------------5---|
D|-------7-----7-------7------7------7------7------7-----7-------7-----7-------7----7----|
A|----0-------------0-------------0--------------0--------------0-------------0----------|
E|---------------------------------------------------------------------------------------|
[ Tab from: http://www.guitartabs.cc/tabs/p/pendulum/girl_in_the_fire_intro_tab.html ]
e|-----------------------------------------------------------------------------------------------|
B|-----------------------------------------------------------------------------------------------|
G|-------7----7---------------7------------7-------------7--------------7-----------7-----------7|
D|---5------4---5---------5----5-------5----5-------5------5-----5------5-----5----5-----5-----5-|
A|----------------------0-------------0------------0--------------0------------0-----------0-----|
E|-----------------------------------------------------------------------------------------------|

e|--------------------------------------|
B|--------------------------------------|
G|--------------------------------------|
D|-------2--5--4---0-----0---5--4---0---|
A|---0-----------------3----------------|
E|--------------------------------------|


e|------------------------------------------------------------------------------------------|
B|------------------------------------------------------------------------------------------|
G|----------------------2h4--2--------------------------------------2h4--2------------------|
D|---------------------------------5--4---0------------------------------------5--4---0-----|
A|--------------2--3------------------------------------------2--3--------------------------|
E|--5--5--5-----------------------------------5---0-0--5------------------------------------|

e|--------------------------------------------------------------------------------------------|
B|--------------------------------------------------------------------------------------------|
G|----------------------2h4--2----------------------------------------------------------------|
D|---------------------------------5--4---0-------2---5---4--0------0---5---4---0-------------|
A|--------------2--3---------------------------0-------------------3--------------------------|
E|--5--5--5-----------------------------------------------------------------------------------|

That's all folks!
Comments