Pendulum - Fasten Your Seatbelt Chords & Tabs

 

Pendulum Chords & Tabs

Version: 1 Type: Bass Tab 0 ratings
1 star 2 stars 3 stars 4 stars 5 stars
comments

Fasten Your Seatbelt Bass Tab

This is my first tab so be patient with it if you dissagree with any part (pretty sure 
of its right though :-S ). Plus I would love some feedback (or for any queries): tomgude090@hotmail.com

This tune has two main parts really the rest is pretty simple to work out yourself.

Normal tuning

h= hammer on
/= slide up

Part 1

G-----3-----------------------3---------------------3-----------------|
D-5-7--5------------------5-7--5-----------4--5-5-7--5----------------|
A--------5--4-4--1---------------5--4-4--5-------------5--4-4--1------|
E-------------------5--3-----------------------------------------5--3-|

[ Tab from: http://www.guitartabs.cc/tabs/p/pendulum/fasten_your_seatbelt_btab.html ]
-----3----------------------3------------------------3----------------|
-5-7--5-----------------5-7--5----------------5--5-7--5----------4--5-|
--------5--4-4--5--------------5--4-4--1----------------5--4-4--5-----|
------------------1--3-------------------5--3-------------------------|

-----3-----------------------3---------3h5/12-|
-5-7--5------------------5-7--5----5-55-------|
--------5--4-4--1---------------5--4-4--------|
-------------------5--3-----------------------|


Part 2

-----3-----------------------------------------------367-11-12-1212121212---|NB
-5-7--5-------------------------------4-5-----------------------------------|
--------5--1-5-4-----------1111-4-5-4---------1--1-45-----------------------|
-----------------1--3--3-5-----------------35-------------------------------|


*NB that's 12th fret repeated not 1 and 2
Comments