Pendulum - Crush Chords & Tabs

 

Pendulum Chords & Tabs

Version: 3 Type: Tab 0 ratings
1 star 2 stars 3 stars 4 stars 5 stars
comments

Crush Tab

   
----------------------------------------------------------------------------
			     Pendulum - Crush
----------------------------------------------------------------------------

Tabbed by: P4ULLELUJAH
Email: paul_prior@hotmail.co.uk

My favourite song from the recent album and fantastic live... sure to be an absolute 
mainstay of their live set.

Tuning: Drop D

Key:
x = palm mute
h = hammer on

********************************************************************
Intro (light crunch/distortion)

e|-----------------------------------------------------------------|
b|-----------------------------------------------------------------|
g|-----------------------------------------------------------------|
d|-2h4-----------------------------xx4-----------------------------|
a|---------------------------------xx------------------------------|
D|-----2h4-4-4-4-4-4-4-4-4-4-4-4-4-xx--0h4-4-4-4-4-4-4-4-4-4-4-4-4-|
                 x-x     x-x     x               x-x     x-x     x

********************************************************************

Main Riff / Verse - The verse guitar section is exactly the same, just palm muted 
instead. (Lots of distortion with middle n high end).

e|-----------------------------------------------------------------|
b|-----------------------------------------------------------------|
g|-----------------------------------------------------------------|
d|-2h4-----------------------------2h4-----------------------------|
a|-----------------------------------------------------------------|
D|-----2-4-4-4-4-4-4-4-4-4-4-4-4-4-----2-4-4-4-4-4-4-4-4-4-4-4-4-4-|

e|-----------------------------------------------------------------|
b|-----------------------------------------------------------------|
g|-----------------------------------------------------------------|
d|-2---------------------------------------------------------------|
a|---2-2-2-2-2-2-2-2-2-2-2-2-2-2-2-5-5-5-5-5-5-5-5-7-7-7-7-7-7-7-7-|
D|-----------------------------------------------------------------|

e|-----------------------------------------------------------------|
b|-----------------------------------------------------------------|
g|-----------------------------------------------------------------|
d|-2h4-----------------------------2h4-----------------------------|
a|-----------------------------------------------------------------|
D|-----2-4-4-4-4-4-4-4-4-4-4-4-4-4-----2-4-4-4-4-4-4-4-4-4-4-4-4-4-|
[ Tab from: http://www.guitartabs.cc/tabs/p/pendulum/crush_tab_ver_3.html ]
e|-----------------------------------------------------------------|
b|-----------------------------------------------------------------|
g|-----------------------------------------------------------------|
d|-2---------------------------------------------------------------|
a|---2-2-2-2-2-2-2-2-2-2-2-2-2-2-2---------------------------------|
D|---------------------------------0-0-0-0-0-0-0-0-2-2-2-2-2-2-2-2-|

********************************************************************

Chorus (Play this open or palm muted, sounds great either way)

e|-----------------------------------------------------------------|
b|-----------------------------------------------------------------|
g|-----------------------------------------------------------------|
d|-----------------------------------------------------------------|
a|-5-5-5-5-5-5-5-5-------------------------------------------------|
D|-----------------2-2-2-2-2-2-2-2-4-4-4-4-4-4-4-4-2-2-2-2-2-2-2-2-| x3

e|-----------------------------------------------------------------|
b|-----------------------------------------------------------------|
g|-----------------------------------------------------------------|
d|-----------------------------------------------------------------|
a|-5-5-5-5-5-5-5-5-------------------------------------------------|
D|-----------------2-2-2-2-2-2-2-2-4-4-4-4-4-4-4-4-4-4-4-4-4-4-4-4-|

********************************************************************

Outro (Acoustic Guitar) The strumming pattern is quite easy to pick up. The chords are 
pretty accurate, although there maybe some variation in the recording that I'm yet to 
pick up on... mostly because I'm usually on the train when I listen to this song 
and my ipod is DIRE.

e|-2---------------0---------------2-------------------------------|
b|-3---------------0---------------2---------------2---------------|
g|-2---------------1---------------2---------------2---------------|
d|-0---------------2---------------4---------------2---------------|
a|-----------------2---------------4---------------0---------------|
D|-----------------2-----------------------------------------------|
   D               E               F#m             A

That's just about it! I'll tab out the synth parts later on tonight and add those in as 
it can sound pretty effective on a guitar. Also, anyone looking for the bass tab for 
this song, it's exactly the same except for a few octave bits here and there.

Cheers! P4UL!
Comments