Pendulum - Crush Chords & Tabs

 

Pendulum Chords & Tabs

Version: 2 Type: Tab 0 ratings
1 star 2 stars 3 stars 4 stars 5 stars
comments

Crush Tab

For the intro to this song-
Your reverb middle and treble should be reasonably high, bass should be
quite low.

For the rest of the song-
Your middle setting returns to middle, bass turned up almost the same as the treble setting. 
(Remember to turn the reverb down a bit).

--------------

Intro
E|------------------------------------------------|
B|------------------------------------------------|
G|------------------------------------------------|
D|-4----------------------------------------------|
A|-2-4--4--4--4--4--4--4--4--4--4--4--4--4--4--4--|  x4
E|---2--2--2--2--2--2--2--2--2--2--2--2--2--2--2--|

--------------

Verse
E|------------------------------------------------|
B|------------------------------------------------|
G|------------------------------------------------|
D|-4----------------------------------------------|
A|-2-4--4--4--4--4--4--4--4--4--4--4--4--4--4--4--|  
E|---2--2--2--2--2--2--2--2--2--2--2--2--2--2--2--|

E|------------------------------------------------|
B|------------------------------------------------|
G|------------------------------------------------|
D|-4----------------------------------------------|
A|-2-4--4--4--4--4--4--4--4--4--4--4--4--4--4--4--|  
E|---2--2--2--2--2--2--2--2--2--2--2--2--2--2--2--|

E|-------------------------------------------------|
B|-------------------------------------------------|
G|-------------------------------------------------|
D|-4--4--4--4--4--4--4--4--4--4--4--4--4--4--4--4--|
A|-2--2--2--2--2--2--2--2--2--2--2--2--2--2--2--2--|
E|-------------------------------------------------|
[ Tab from: http://www.guitartabs.cc/tabs/p/pendulum/crush_tab_ver_2.html ]
E|-------------------------------------------------|
B|-------------------------------------------------|
G|-------------------------------------------------|
D|-7--7--7--7--7--7--7--7--9--9--9--9--9--9--9--9--|   x8
A|-5--5--5--5--5--5--5--5--7--7--7--7--7--7--7--7--|
E|-------------------------------------------------|   

--------------

Chorus 
E|-------------------------------------------------|
B|-------------------------------------------------|
G|-------------------------------------------------|
D|-7--7--7--7--7--7--7--7--9--9--9--9--9--9--9--9--|
A|-5--5--5--5--5--5--5--5--7--7--7--7--7--7--7--7--|
E|-------------------------------------------------|

E|-9--9--9--9--9--9-(12)9--9--9--9--9--9--9-(10)9--|   The notes in the
B|-9--9--9--9--9--9--9--9--9--9--9--9--9--9--9--9--| brackets give you the 
G|-9--9--9--9--9--9--9--9--9--9--9--9--9--9--9--9--| bit of synth you can 
D|-11-11-11-11-11-11-11-11-11-11-11-11-11-11-11-11-| hear in the background
A|-9--9--9--9--9--9--9--9--9--9--9--9--9--9--9--9--|
E|-------------------------------------------------|

E|-------------------------------------------------|
B|-------------------------------------------------|
G|-------------------------------------------------|
D|-7--7--7--7--7--7--7--7--9--9--9--9--9--9--9--9--|
A|-5--5--5--5--5--5--5--5--7--7--7--7--7--7--7--7--|
E|-------------------------------------------------|

E|-------------------------------------------------|
B|-------------------------------------------------|
G|-------------------------------------------------| x2 then back to verse
D|-------------------------------------------------| then back here for 
A|-4--4--4--4--4--4--4--4--4--4--4--4--4--4--4--4--| another chorus 
E|-2--2--2--2--2--2--2--2--2--2--2--2--2--2--2--2--|                         

--------------

The outro which is clean (or on acoustic guitar)

Come in at- the nightmare's i've been having.. (3:17)

E|-2------|-0-------|-2------|--------|
B|-3------|-0-------|-2------|-2------|
G|-2------|-0-------|-2------|-2------|
D|--------|-2-------|-4------|-2------|
A|--------|-2-------|-4------|--------|
E|--------|-0-------|-2------|--------|  x9

Enjoy.

Listen out for palm muting's just in case.
Comments