Pendulum - Crush Chords & Tabs

 

Pendulum Chords & Tabs

Version: 1 Type: Tab 0 ratings
1 star 2 stars 3 stars 4 stars 5 stars
comments

Crush Tab

   
Title: Crush
Artist: Pendulum
Album: Immersion
Author: Scott Esplin (at) sky (dot) com
Date: 07-10-10 / 08-10-10
Time: Midnight!

My first tab attempt ever!!!!
Thanks to crackerjam's bass.
Love the song, so just had to try and do it justice. Have fun!


Intro lick, mini-sweep the 1st bit, mini-barre at 9th fret for the 2nd?!

E|-----10--9-----------------------|-----10--9--------------------|
B|-------------10------------------|------------------------------|
G|-----------------11--------------|-------------9---11-----------|  repeat
D|---------------------------------|------------------------------|
A|---------------------------------|------------------------------|
E|---------------------------------|------------------------------|


Verse Rhythm, etc

E|-------------------------------------------------|
B|-------------------------------------------------|
G|-------------------------------------------------|
D|-------------------------------------------------|
A|-4--4--4--4--4--4--4--4--4--4--4--4--4--4--4--4--|
E|-2--2--2--2--2--2--2--2--2--2--2--2--2--2--2--2--|

E|-------------------------------------------------|
B|-------------------------------------------------|
G|-------------------------------------------------|
D|-------------------------------------------------|
A|-4--4--4--4--4--4--4--4--4--4--4--4--4--4--4--4--|
E|-2--2--2--2--2--2--2--2--2--2--2--2--2--2--2--2--|

E|-------------------------------------------------|
B|-------------------------------------------------|
G|-------------------------------------------------|
D|-4--4--4--4--4--4--4--4--4--4--4--4--4--4--4--4--|
A|-2--2--2--2--2--2--2--2--2--2--2--2--2--2--2--2--|
E|-------------------------------------------------|
[ Tab from: http://www.guitartabs.cc/tabs/p/pendulum/crush_tab.html ]
E|-------------------------------------------------|
B|-------------------------------------------------|
G|-------------------------------------------------|
D|-7--7--7--7--7--7--7--7--------------------------|
A|-5--5--5--5--5--5--5--5--2--2--2--2--2--2--2--2--|
E|-------------------------0--0--0--0--0--0--0--0--|


Chorus lick, tricky on a guitar! See if you can find an easier way!
Again mini-barre at 9th, 3rd finger for 11th fret, stretch pinkie to 14th!

E|---------14----------------------|          |---------14----------------------|
B|-----------------12--10--9---10--|          |-----------------12--10--9-------|
G|-----11------11------------------| repeat   |-----11------11--------------9---|
D|---------------------------------|          |---------------------------------|
A|---------------------------------|          |---------------------------------|
E|---------------------------------|          |---------------------------------|


Chorus Rhythm

E|-------------------------------------------------|
B|-------------------------------------------------|
G|-------------------------------------------------|
D|-7--7--7--7--7--7--7--7--------------------------|
A|-5--5--5--5--5--5--5--5--2--2--2--2--2--2--2--2--|
E|-------------------------0--0--0--0--0--0--0--0--|


E|-------------------------------------------------|
B|-------------------------------------------------|
G|-------------------------------------------------|
D|-------------------------------------------------|
A|-4--4--4--4--4--4--4--4--2--2--2--2--2--2--2--2--|
E|-2--2--2--2--2--2--2--2--0--0--0--0--0--0--0--0--|


Acoustic Strum: D, E, F#minor, A

E|-2------|--------|-2------|--------|
B|-3------|--------|-2------|-2------|
G|-2------|-1------|-2------|-2------|
D|--------|-2------|-4------|-2------|
A|--------|-2------|-4------|--------|
E|--------|--------|-2------|--------|

Comments