Pendulum - Blood Sugar Chords & Tabs

 

Pendulum Chords & Tabs

Version: 2 Type: Bass Tab 0 ratings
1 star 2 stars 3 stars 4 stars 5 stars
comments

Blood Sugar Bass Tab

YO! heres a pendulum tune! some of the notes on the verse are being played
more than i wrote or less. And also, note that some of the notes are
octives but there played in different parts. couldnt be botherd putting
them in its easy enough to do it yourself buddy:D

well enjoy :D please rate A.J

Intro
|----|------|-----------|------|-------------|------|-----------|
|----|------|-----------|------|-------------|------|-----------|
|----|------|-----------|------|-------------|------|-----------|
|-3~-|-4-3~-|-1111-1-3~-|-4-3~-|-1-1-11-1-3~-|-4-3~-|-1111-1-3~-|

|-----|
|-----|
|-----|
|-4-3-| repeat

Interlude
|----|-----|------|------|------|------|------|
|----|-----|------|------|------|------|------|
|----|-----|------|---1~-|------|------|------|
|-3~-|4-3~-|-1-3~-|-4----|-1-3~-|-4-3~-|-1-3~-|

*optional - blood suger live he plays
|-------------------------------------15---------|
|-15h17-17-17-17-17-17-17-17--15--17------17--15-|
|------------------------------------------------| xlots
|------------------------------------------------|

Verse 1                                     Ending
|---------------------------------|         |-----------------|
|---------------------------------|         |-----------------|
|---------------------------------| x3      |-----------------|
|-33333333-4444-33333333-11111111-|         |-4-3-4-3-4-3-4-3-|

verse 2
|---------------------------------------|
|---------------------------------------|
|---------------------11111111-3333-1---| 
|-33333333-4444444444-----------------1-|

|------------------------------------|
|------------------------------------|
|---------------------11111111-------|
|-33333333-4444444444----------11-11-|

|---------------------------------------|
|---------------------------------------|
|---------------------11111111-3333-1---| 
|-33333333-4444444444-----------------1-|

|----------------------------------------|
|----------------------------------------|
|----------------------------------------|
|-33333333-4444444444--3--4--3--4--3-3-3-|
[ Tab from: http://www.guitartabs.cc/tabs/p/pendulum/blood_sugar_btab_ver_2.html ]
Verse 1                                     Ending
|---------------------------------|         |-----------------|
|---------------------------------|         |-----------------|
|---------------------------------| x3      |-----------------|
|-33333333-4444-33333333-11111111-|         |-4-3-4-3-4-3-4-3-|

verse 2
|---------------------------------------|
|---------------------------------------|
|---------------------11111111-3333-1---| 
|-33333333-4444444444-----------------1-|

|------------------------------------|
|------------------------------------|
|---------------------11111111-------|
|-33333333-4444444444----------11-11-|

|---------------------------------------|
|---------------------------------------|
|---------------------11111111-3333-1---| 
|-33333333-4444444444-----------------1-|

|-------------------------------------------|
|-------------------------------------------|
|-------------------------------------------|
|-33333333-4444444444--3--4--3--4--3~-3~-3~-|

Bridge 
|------------------------------|    |---------------|
|------------------------------|    |---------------|
|----------------------1-------| x4 |----4--3--1----|  repeat lots
|-3-3-3-3-3-3-3--1--3-----3--1-|    |-3-----------1-|

Verse 1                                     Ending
|---------------------------------|         |-----------------|
|---------------------------------|         |-----------------|
|---------------------------------| x3      |-----------------|
|-33333333-4444-33333333-11111111-|         |-4-3-4-3-4-3-4-3-|

verse 2
|---------------------------------------|
|---------------------------------------|
|---------------------11111111-3333-1---| 
|-33333333-4444444444-----------------1-|

|------------------------------------|
|------------------------------------|
|---------------------11111111-------|
|-33333333-4444444444----------11-11-|

|---------------------------------------|
|---------------------------------------|
|---------------------11111111-3333-1---| 
|-33333333-4444444444-----------------1-|

|-------------------------------------------|
|-------------------------------------------|
|-------------------------------------------|
|-33333333-4444444444--3--4--3--4--3~-3~-3~-|

Verse 1                                     Outro
|---------------------------------|         |---------------------|
|---------------------------------|         |---------------------|
|---------------------------------| x3      |---------------------|
|-33333333-4444-33333333-11111111-|         |-4-3-4-3-4-3-4-3-1-3~|

Comments