Pegazus - The Crusade Chords & Tabs

 

The Crusade Chords & Tabs

Pegazus Chords & Tabs

Version: 1 Type: Tab 0 ratings
1 star 2 stars 3 stars 4 stars 5 stars
comments

The Crusade Tab

   
Pegazus - The Crusade
>From the album Breaking the chains

Hope you all like this one, as its my favourite. It seems more or less
accurate (Esp the Intro :-)), but i havn't done the solo. Perhaps if you nag
me a bit i might get around to it. More Pegazus tabs coming soon

-Jimmy Macintyre

Send any Coments, complaints, critisism, corrections, etc to

Fryliketheinfidel@hotmail.com

Thanks


Intro

Bar A                                          B                C

E|--5--7--8--7--5-7--5-10--8--7--5-755----|-8-10-12-10--8-10--|-3--5--7--5--
3-5-|
B|*-555555555555555--5555555555555-555---*|-8888888888888888--|-333333333333
333-|
G|----------------------------------------|-------------------|-------------
----|
D|----------------------------------------|-------------------|-------------
----|
A|*--------------------------------------*|-------------------|-------------
----|
E|----------------------------------------|-------------------|-------------
----|

Pluck this with the thumb and index finger.

On first time, repeat Bar A twice before going to B and C. Second time is
just A to B to C.



Riff 1

Bar  A                                                  B                 C

E|---------------------------------------------------|------------------|---
------|
B|---------------------------------------------------|------------------|---
------|
G|---------------------------------------------------|------------------|---
------|
D|--2---4-5--4-2--------5-7-9-7-5-4-2-x--------------|--5\4-2-----------|-7\
--5---|
A|--0---2-3--2-0-5------3-5-7-5-3-2-0-x-5------------|--3\2-0-5-3----33-|-5\
--3-5-|
E|---------------3-3-3------------------3-3333333333-|--------3-1----11-|---
----3-|
                   * *                *   **********                 **





Riff 2

Bar  A			   B			   C                 D                 E
[ Tab from: http://www.guitartabs.cc/tabs/p/pegazus/the_crusade_tab.html ]
E|-------------------------|----------------------|----------------|--------
---------|-----|
B|*-----------------------*|*--------------------*|----------------|--------
---------|-----|
G|-------------------------|----------------------|----------------|--------
---------|-----|
D|---2--2--------22-2====>-|--5--5----------------|----------------|--------
---------|-5---|
A|*--0-00-000000-00-0H2P0-*|*-3-33-333333-5-3-2--*|--5--5----------|--5--5--
---------|-3-5-|
E|-----------------------3-|--------------------5-|--3-33-33333333-|--3-33-3
333-1111-|---3-|
      *  ******                *  ******              *  ********      *
**** ****

With this riff, play as normal,  repeat bar A and then Bar B and on every
second time play Bar D instead of C.



riff 3 (pre-solo)

Bar        A

E|------------------------|
B|*----------------------*|
G|------------------------|
D|--999-555-777-444-------|
A|*-777-333-555-2223P2---*|
E|----------------------3-|




Riff 4 (Solo rythm 1 )

Bar  A

E|--------------------------------------|
B|--------------------------------------|
G|--------------------------------------|
D|--7X7X7X7-101010----7X7X7X7-10--------|
A|--5X5X5X5--8-8-8----5X5X5X5--8-10-----|
E|--------------------------------8-----|

Riff 5 (Solo rythm 2 )

Bar  A

E|----------------------------|
B|----------------------------|
G|----------------------------|
D|-2X2X2X2-555---2X2X2X2-5----|
A|-0X0X0X0-333---0X0X0X0-3-5--|
E|-------------------------3--|


Solo


Riff 6

Bar   A

E|----------------------------|
B|*--------------------------*|
G|--------2-4----2------------|
D|--2-4-5-0-2-5--0-4-5-2-4----|
A|*-0-2-3-----3----2-3-0-2-5-*|
E|-------------------------3--|

Riff 7

E|---------------------------|
B|---------------------------|
G|--------2-4----2-----------|
D|--2-4-5-0-2-5--0-4-5-2-----|
A|--0-2-3-----3----2-3-0-55--|
E|-----------------------33--|




I'll tab the solo later.


Intro         X2
Riff 1	      X2
Riff 2	      X4
Riff 1        X2
Riff 2        X4
Riff 1        X2
Riff 3        x4
Riff 4        X2
Riff 5        X2
Riff 4        X2
Riff 5        X2
Riff 3        x4
Riff 6        X1
Riff 7        X1
Intro         X4
Riff 1       Repeats and fades out


Jimmy Macintyre
Fryliketheinfidel@hotmail.com
Comments