Pedro The Lion - Transcontinental Chords & Tabs

 

Transcontinental Chords & Tabs

Pedro The Lion Chords & Tabs

Version: 1 Type: Bass Tab 0 ratings
1 star 2 stars 3 stars 4 stars 5 stars
comments

Transcontinental Bass Tab

 Note: The lyrics do not match the tab. They are just there to give you 
an idea of were in the song you are. Also, I made up the bass rythem to
follow the music the best I could, sorry if this tab sucks. These are 
just the basic notes so feel free to e-mail me (rycnhoj@yahoo.com) if you 
see any major mistakes. I will correct them if possible.


Verse 1
  1 2 3 4 1 2 3 4 1 2 3 4 1 2 3 4 1 2 3 4 1 2 3 4
G|------------------------------------------------|
D|------------------------------------------------| x2
A|----------------7--77--7-7-77-7-----------------|
E|8--88--8-8-8-55-----------------1---1-1-4---4-4-|
Engine severs lower legs, I feel my bruised heart beating
Spinal cord remains in tact, still sending and receiving

  1 2 3 4 1 2 3 4 1 2 3 4 1 2 3 4 1 2 3 4 
G|----------------------------------------|
D|----------------------------------------|
A|----------------------------------------|
E|5-------5---3---1---------------8-----87|
Laying back on shoulder blades, cargo rushing past

  1 2 3 4 1 2 3 4 1 2 3 4 1 2 3 4 1 2 3 4 
G|----------------------------------------|
D|----------------------------------------|
A|----------------------------------------|
E|5-------5---3---1---------------3-------|
Missing limbs beneath the cars, twitching on the tracks


Chorus 1
  1 2 3 4 1 2 3 4 1 2 3 4 1 2 3 4 1 2 3 4 1 2 3 4 
G|------------------------------------------------|
D|------------------------------------------------|
A|----------------55555555------------------------|
E|8888888811111111--------33334444555555551-------|
Clic clack, now handicapped, north am transcontinental
 

Small Break
  1 2 3 4 1 2 3 4 1 2 3 4 1 2 3 4 1 2 3 4 1 2 3 4
G|------------------------------------------------|
D|------------------------------------------------|
A|----------------7--77--7-7-77-7-----------------|
E|8--88--8-8-8-55-----------------1111333344446666|

[ Tab from: http://www.guitartabs.cc/tabs/p/pedro_the_lion/transcontinental_btab.html ]
Verse 2
  1 2 3 4 1 2 3 4 1 2 3 4 1 2 3 4 1 2 3 4 1 2 3 4
G|------------------------------------------------|
D|------------------------------------------------| x2
A|----------------7--77--7-7-77-7-----------------|
E|8--88--8-8-8-55-----------------1---1-1-4---4-4-|
I remember as I bleed, certain tales of bravery
A man who's legs were trapped beneath, a fallen evergreen tree

  1 2 3 4 1 2 3 4 1 2 3 4 1 2 3 4 1 2 3 4 
G|----------------------------------------|
D|----------------------------------------|
A|----------------------------------------|
E|5-------5---3---1---------------8-----87|
He decided he would chop them off above the knee

 1 2 3 4 1 2 3 4 1 2 3 4 1 2 3 4 1 2 3 4 
G|----------------------------------------|
D|----------------------------------------|
A|----------------------------------------|
E|5-------5---3---1---------------3-------|
To sacrifice his shins and feet, and set his torso free


Bridge
  1 2 3 4 1 2 3 4 1 2 3 4 1 2 3 4 1 2 3 4 1 2 3 4 1 2 3 4 1 2 3 4  
G|----------------------------------------------------------------|
D|----------------------------------------------------------------|
A|5555555555555555------------------------------------------------|
E|----------------555555555555555511111111111111117777777788888888|
The   luxury   of   having   been   spared   the   hard part 

 1 2 3 4 1 2 3 4 1 2 3 4 1 2 3 4 1 2 3 4 1 2 3 4 1 2 3 4 
G|--------------------------------------------------------|
D|--------------------------------------------------------|
A|5555555555555555----------------------------------------|
E|----------------5555555555555555111111111111111133333333|
You'd think would be enough for me to pull this off


Chorus 2/Outro
  1 2 3 4 1 2 3 4 1 2 3 4 1 2 3 4 1 2 3 4 1 2 3 4 1 2 3 4 1 2 3 4  
G|----------------------------------------------------------------|
D|----------------------------------------------------------------|
A|----------------55555555----------------------------------------|
E|8888888811111111--------3333444455555555333333331111111188888888|
But I'm left to bleed to death now all the man I've ever been North

  1 2 3 4 1 2 3 4 1 2 3 4 1 2 3 4 1 2 3 4 1 2 3 4 
G|------------------------------------------------|
D|------------------------------------------------|
A|55555555----------------------------------------|
E|--------3333333344444444666666668~~~~~~~~~~~~~~~|
  am Transcontinental                Let Ring


Enjoy This Great Song
Please try tabbing some of your own favorites for all to try
Comments