Pedro The Lion - Lullaby Chords & Tabs

 

Lullaby Chords & Tabs

Pedro The Lion Chords & Tabs

Version: 2 Type: Tab 0 ratings
1 star 2 stars 3 stars 4 stars 5 stars
comments

Lullaby Tab

Hey this is an awsome song by an awsome band.  It is all correct except for the chorus
But if you play it in the right timing it will work.)  Please rate if you appretiate
people doing this for you. Any comments or questions email me at sam_boed@hotmail.com.  Rock on!
STANDARD TUNING

Verse
e ----------------|----------------|----------------|----------------|
B ----------------|----------------|----------------|----------------|
G ----0-----------|----0-----------|----------------|----------------|
D --2-------------|--2-------------|----2-3---2-----|----3-0---2-0---|
A 3---------------|0---------------|--3-------------|--2-------------|
E ----------------|----------------|1---------------|3---------------|

Prechorus
e ----------------|----------------|----------------|----------------|
B ----------------|----------------|----------------|----------------|
G ----0-----------|----------------|----0-----------|----------------|
D --2-------------|----2-3---2-----|--2-------------|----3-0---2-0---|
A 0---------------|--3-------------|3---------------|--2-------------|
E ----------------|1---------------|----------------|3---------------|

e ----------------|----------------|----------------|----------------|
B ----------------|----------------|----------------|----------------|
G ------0---------|----0-----------|----------------|----------------|
D ----2-----------|--2-------------|----2-3---2-----|----------------|
A --3-------------|3---------------|--3-------------|----0---2---3---|
E 0---------------|----------------|1---------------|3---------------|

Chorus
e ----------------|----------------|----------------|----------------|
B ----------------|----------------|----------------|----------------|
G ----------------|----------------|----------------|----------------|
D ----------------|----------------|----------------|----------------|
A 3-3-3-3-3-3-3-3-|----------------|0-0-0-0-0-0-0-0-|2-2-2-2-2-2-2-2-|
E ----------------|3-3-3-3-3-3-3-3-|----------------|----------------|

e ----------------|----------------|----------------|----------------|
B ----------------|----------------|----------------|----------------|
G ----------------|----------------|----------------|----------------|
D ----------------|----------------|0-0-0-0-0-0-0-0-|----------------|
A 3-3-3-3-3-3-3-3-|----------------|----------------|3-3-2-2-0-0-----|
E ----------------|3-3-3-3-3-3-3-3-|----------------|------------3-3-|

e ----------------|----------------|----------------|----------------|
B ----------------|----------------|----------------|----------------|
G ----------------|----------------|----------------|----------------|
D ----------------|----------------|----------------|5-5-5-5-5-5-5-5-|
A 0-0-0-0-0-0-0-0-|----------------|3-3-3-3-3-3-3-3-|----------------|
E ----------------|1-1-1-1-1-1-1-1-|----------------|----------------|
[ Tab from: http://www.guitartabs.cc/tabs/p/pedro_the_lion/lullaby_tab_ver_2.html ]
e ----------------|----------------|
B ----------------|----------------|
G ----------------|----------------|
D 3-3-3-3-3-3-3-3-|----------------|
A ----------------|----------------|
E ----------------|3---------------|

Bridge
e ----------------|----------------|----------------|----------------|
B ----------------|----------------|----------------|----------------|
G 5-5-5-5-5-5-5-5-|5-5-5-5-5-5-5-5-|----------------|----------------|
D 5-5-5-5-5-5-5-5-|5-5-5-5-5-5-5-5-|7-7-7-7-7-7-7-7-|5-5-5-5-5-5-5-5-|
A 3-3-3-3-3-3-3-3-|3-3-3-3-3-2-2-2-|7-7-7-7-7-7-7-7-|5-5-5-5-5-5-5-5-|
E ----------------|----------------|5-5-5-5-5-5-5-5-|3-3-3-3-3-3-3-3-|

e ----------------|----------------|----------------|----------------|
B ----------------|----------------|----------------|----------------|
G 7-7-7-7-7-7-7-7-|----------------|5-5-5-5-5-5-5-5-|9-9-9-9-9-9-9-9-|
D 5-5-5-5-5-5-5-5-|3-3-3-3-3-3-3-3-|5-5-5-5-5-5-5-5-|9-9-9-9-9-9-9-9-|
A 5-5-5-5-5-5-5-5-|3-3-3-3-3-3-3-3-|3-3-3-3-3-3-3-3-|7-7-7-7-7-7-7-7-|
E ----------------|1-1-1-1-1-1-1-1-|----------------|----------------|

e ----------------|----------------|
B ----------------|----------------|
G ----------------|----------------|
D 5-5-5-5-5-5-5-5-|3-3-3-3-3-3-3-3-|
A 5-5-5-5-5-5-5-5-|3-3-3-3-3-3-3-3-|
E 3-3-3-3-3-3-3-3-|1-1-1-1-1-1-1-1-|

Last Verse
e ----------------|----------------|----------------|----------------|
B ------0---1-----|------0---1-----|----------------|----------------|
G ----0-----------|----0-----------|----------------|----------------|
D --2-------------|--2-------------|----2-3---2-----|----3-0---2-0---|
A 3---------------|0---------------|--3-------------|--2-------------|
E ----------------|----------------|1---------------|3---------------|

e ----------------|----------------|----------------|----------------|
B ------0---1-----|------0---1-----|----------------|----------------|
G ----0-----------|----0-----------|----------------|----------------|
D --2-------------|--2-------------|----2-3---2-----|----------------|
A 3---------------|0---------------|--3-------------|--0---2--3------|
E ----------------|----------------|1---------------|3---------------|

Lyrics

The sun shines and leaves blow 
and my hope like autumn is turning brown.
I know it seems like
I am always falling down

but it does not matter to me
although it seems like it should
it's because I know I am understood
when I hear Him say

rest in me little David
and dry all your tears
you can lay down your armor
and have no fears
because I'm always here when you're tired of running
I'm all the strength that you need

It's uphill both ways
tomorrow I swear I won't act this way
I know it seems like
that is what I always say

rest in me little David
and dry all your tears
you can lay down your armor
and have no fears
because I'm always here when you're tired of running
I'm all the strength that you need

you know I want to be like Jesus
but it seems so very far away
when will I learn to obey
Comments